Mortification - Eternal Lamentation Text Guitar Tab

Learn song with the online tabulature player
Eternal Lamentation
by Mortification
From the 1992 album: Scrolls of the Megilloth
Tabbed by Ben Wright a.k.a. BloodNChunks (iaminchrist3@hotmail.com)

~Tuning in C~

~Riff 1, fast alternate picking
C |---------------------------------------------------------------|
G |---------------------------------------------------------------|
D#|---------------------------------------------------------------|
A#|---------------------------------------------------------------| x4
F |---------------------------------------------------------------|
C |111111555444111111555444111111555444111111555444---------------|

~Riff 2
C |-----------------------|
G |-----------------------|
D#|-----------------------|
A#|-----------4--5--------| x4, last time ending on the 
F |-4---------2--3----5---|                             F|-4-|
C |-2-----------------3---|                             c|-2-|

~Special "chainsaw" fill~

~Riff 3, fast alternate picking, lightly palm mute everything
C |-----------------------------------------------------------------|
G |-----------------------------------------------------------------|
D#|-----------------------------------------------------------------|
A#|-----------------------------------------------------------------| x6
F |-----------------------------------------------------------------|
C |-4433443344334433443344334433443344334433443344336655665577667766|

~Riff 4, fast alternate picking
C |------------------------|
G |------------------------|
D#|------------------------|
A#|------444444------3322--|
F |333333222222444444110044|
C |111111------222222----22|

~Riff 5, fast alternate picking
C |------------------------|
G |------------------------|
D#|------------------------|
A#|333222555444555444------| x20
F |------------------555000|
C |------------------------|

~Riff 6, fast alternate picking
C |-----------------|
G |-----------------|
D#|-----------------|
A#|---------5544----| x8
F |-8888777733225544|
C |-66665555----3322|

~Riff 7
C |-----------------|
G |-----------------|
D#|-----------------|
A#|---------5-4-----| x4
F |-8---7---3-2-5-4-|
C |-6---5-------3-2-|

~back to Riff 6, x4~~~~~~~~~~~~~~~~~~~~~~~~~~~~
~then to riff 7, x4~~~~~~~~~~~~~~~~~~~~~~~~~~~~

~Riff 8
C |-----------------------|
G |-----------------------|
D#|-----------------------|
A#|----3--4--------5--4---| x1
F |-3--1--2--4--5--3--2--4|
C |-1--------2--3--------2|

~~Now back to riff 3, x6~~~~~~~~~~~~~~~~~~~~~~~~~~~

~Riff 9, fast alternate picking
C |------------------------------------------------|
G |------------------------------------------------|
D#|------------------------------------------------|
A#|------------222111111111444333333333------------|
F |111000000000------------------------444333333333|
C |------------------------------------------------|\
                                                     >x2
C |------------------------------------------------|/
G |------------------------------------------------|
D#|------------------------------------------------|
A#|------------222111111111444333------222111111111|
F |111000000000------------------444444------------|
C |------------------------------------------------|

~Riff 10, fast alternate picking
C |------------------------------------------------|
G |------------------------------------------------|
D#|------------------------------------------------|
A#|------------------------777666666666------------| x4
F |888777777777888444444444555444444444888777444444|
C |666555555555666222222222------------666555222222|


~Riff 11
C |------------------------------------------------|
G |------------------------------------------------|
D#|------------------------------------------------|
A#|------------------------7--6--------------------| x2
F |8--7--------8--4--------5--4--------8--7-4-3----|
C |6--5--------6--2--------------------6--5-2-1----|

~Riff 12
C |-----------------------------------------------------------|
G |-----------------------------------------------------------|
D#|-----------------------------------------------------------|
A#|-----------------------------7--6---6-6-6-6----------------| x4, decreasing tempo
F |8--7---7-7-7-7-8--4--4-4-4-4-5--4---4-4-4-4-8--7---4---3---|
C |6--5---5-5-5-5-6--2--2-2-2-2----------------6--5---2---1---|
PM        - -   -       - -   -        - -   -

~Riff 3, x5~~~~~~~~~~~~~~~~~~~~~~~~~~~~~~~~~~~~~~~~~~~~~~~~~~~~~~~~

And you're done!

Tabbed by Ben Wright a.k.a. BloodNChunks (iaminchrist3@hotmail.com)
Please give me the credit if you use any part of this tab.