Mortification - Human Conditions Text Guitar Tab

Learn the song with the online tablature player
Tune guitar down 1 step
E D   G F
A G   B A
D C   E D

 A
|------------------------------------------------|
|------------------------------------------------|
|------------------------------------------------|
|------------------------5--5--5--5--------------|
|------------------------------------5--5--5--5--|
|1-----1-----1-----------------------------------|
 ,  .  .  .  ,  .  .  .  ,  .  .  .  ,  .  .  .

|------------------------------------------------|
|------------------------------------------------|
|------------------------------------------------|
|------------------------------------------------|
|4--4--4--4--3--3--3--3--------------------------|
|------------------------4--4--4--4--3--3--3-----|
 ,  .  .  .  ,  .  .  .  ,  .  .  .  ,  .  .  .

  B
|------------------------------------------------|
|------------------------------------------------|
|------------------------------------------------|
|------------------------------------------------|
|------------------------5--5--5--5--4--4--4--4--|
|3--3--3--3--3--3--3--3--------------------------|
 ,  .  .  .  ,  .  .  .  ,  .  .  .  ,  .  .  .

|------------------------------------------------|
|------------------------------------------------|
|------------------------------------------------|
|------------------------------------------------|
|5--5--5--5--4--4--4--4--------------------------|
|------------------------6--6--6--6--6--6--6--6--|
 ,  .  .  .  ,  .  .  .  ,  .  .  .  ,  .  .  .

|------------------------------------------------|
|------------------------------------------------|
|------------------------------------------------|
|------------------------------------------------|
|------------------------5--5--5--5--4--4--4--4--|
|3--3--3--3--3--3--3--3--------------------------|
 ,  .  .  .  ,  .  .  .  ,  .  .  .  ,  .  .  .

|------------------------------------------------|
|------------------------------------------------|
|------------------------------------------------|
|------------4--4--4--4--------------------------|
|5--5--5--5--------------6--6--6--6--6--6--6--6--|
|------------------------------------------------|
 ,  .  .  .  ,  .  .  .  ,  .  .  .  ,  .  .  .

 C
|------------------------------------------------|
|------------------------------------------------|
|------------------------------------------------|
|------------------------------------------------|
|3--3--3--3--3--3--3--3--6--6--6--6--6--6--6--6--|
|3--3--3--3--3--3--3--3--6--6--6--6--6--6--6--6--|
 ,  .  .  .  ,  .  .  .  ,  .  .  .  ,  .  .  .

|------------------------------------------------|
|------------------------------------------------|
|------------------------------------------------|
|------------------------------------------------|
|5--5--5--5--5--5--5--5--5--5--5--5--5--5--5--5--|
|5--5--5--5--5--5--5--5--5--5--5--5--5--5--5--5--|
 ,  .  .  .  ,  .  .  .  ,  .  .  .  ,  .  .  .

|------------------------------------------------|
|------------------------------------------------|
|------------------------------------------------|
|------------------------------------------------|
|3--3--3--3--3--3--3--3--7--7--7--7--7--7--7--7--|
|3--3--3--3--3--3--3--3--7--7--7--7--7--7--7--7--|
 ,  .  .  .  ,  .  .  .  ,  .  .  .  ,  .  .  .

|------------------------------------------------|
|------------------------------------------------|
|------------------------------------------------|
|------------------------------------------------|
|0--0--0--0--0--0--0--0--0--0--0--0--0--0--0--0--|
|0--0--0--0--0--0--0--0--0--0--0--0--0--0--0--0--|
 ,  .  .  .  ,  .  .  .  ,  .  .  .  ,  .  .  .

 D
|------------------------------------------------|
|------------------------------------------------|
|------------------------------------------------|
|------------------------------------3--3--3--3--|
|------------------------4--4--4--4--------------|
|1--1--1--1--1--1--1--1--------------------------|
 ,  .  .  .  ,  .  .  .  ,  .  .  .  ,  .  .  .

|------------------------------------------------|
|------------------------------------------------|
|------------------------------------------------|
|4--4--4--4--4--4--4--4--4--4--4--4--4--4--4--4--|
|------------------------------------------------|
|------------------------------------------------|
 ,  .  .  .  ,  .  .  .  ,  .  .  .  ,  .  .  .

|------------------------------------------------|
|------------------------------------------------|
|------------------------------------------------|
|------------------------4--4--4--4--3--3--3--3--|
|------------------------------------------------|
|1--1--1--1--1--1--1--1--------------------------|
 ,  .  .  .  ,  .  .  .  ,  .  .  .  ,  .  .  .

|------------------------------------------------|
|------------------------------------------------|
|------------------------------------------------|
|------------------------------------------------|
|4--4--4--4--4--4--4--4--4--4--4--4--4--4--4--4--|
|------------------------------------------------|
 ,  .  .  .  ,  .  .  .  ,  .  .  .  ,  .  .  .

 E
|------------------------------------------------|
|------------------------------------------------|
|------------------------------------------------|
|6-----------------------------------------------|
|6-----------------------------------------------|
|4-----------------------------------------------|
 ,  .  .  .  ,  .  .  .  ,  .  .  .  ,  .  .  .

|------------------------------------------------|
|------------------------------------------------|
|------------------------------------------------|
|5-----------------------------------------------|
|5-----------------------------------------------|
|3-----------------------------------------------|
 ,  .  .  .  ,  .  .  .  ,  .  .  .  ,  .  .  .

|------------------------------------------------|
|------------------------------------------------|
|------------------------------------------------|
|6-----------------------------------------------|
|6-----------------------------------------------|
|4-----------------------------------------------|
 ,  .  .  .  ,  .  .  .  ,  .  .  .  ,  .  .  .

|------------------------------------------------|
|------------------------------------------------|
|------------------------------------------------|
|4-----------------------------------------------|
|4-----------------------------------------------|
|2-----------------------------------------------|
 ,  .  .  .  ,  .  .  .  ,  .  .  .  ,  .  .  .

 F
|------------------------------------------------|
|------------------------------------------------|
|------------------------------------------------|
|------------------------------------------------|
|------------------------------------------------|
|1^----------1-----1-----4^----------4-----4-----|
 ,  .  .  .  ,  .  .  .  ,  .  .  .  ,  .  .  .

|------------------------------------------------|
|------------------------------------------------|
|------------------------------------------------|
|------------------------------2-----------------|
|------------------------3-----------5-----------|
|1^----------1-----1-----------------------------|
 ,  .  .  .  ,  .  .  .  ,  .  .  .  ,  .  .  .

|------------------------------------------------|
|------------------------------------------------|
|------------------------------------------------|
|------------------------------------------------|
|------------------------------------------------|
|1^----------1-----1-----4^----------4-----4-----|
 ,  .  .  .  ,  .  .  .  ,  .  .  .  ,  .  .  .

|------------------------------------------------|
|------------------------------------------------|
|------------------------------------------------|
|------------------------2-----------------------|
|------------------------------5-----3-----------|
|1^----------1-----1-----------------------------|
 ,  .  .  .  ,  .  .  .  ,  .  .  .  ,  .  .  .

|------------------------------------------------|
|------------------------------------------------|
|------------------------------------------------|
|------------------------------------------------|
|------------------------------------------------|
|1^----------1-----1-----4^----------4-----4-----|
 ,  .  .  .  ,  .  .  .  ,  .  .  .  ,  .  .  .

|------------------------------------------------|
|------------------------------------------------|
|------------------------------------------------|
|------------------------------2-----------------|
|------------------------3-----------5-----------|
|1^----------1-----1-----------------------------|
 ,  .  .  .  ,  .  .  .  ,  .  .  .  ,  .  .  .

|------------------------|
|------------------------|
|------------------------|
|------------------------|
|------------------------|
|1^----------1-----1-----|
 ,  .  .  .  ,  .  .  .

 G
|------------------------------------------------|
|------------------------------------------------|
|------------------------------------------------|
|------------------------------2-----------------|
|------------------4-----3-----------5-----4-----|
|1--1--1-----1--1--4-----------------------------|
 ,  .  .  .  ,  .  .  .  ,  .  .  .  ,  .  .  .

 End
|------------------------------------------------|
|------------------------------------------------|
|------------------------------------------------|
|------------------------5--5--5--5--------------|
|------------------------------------5--5--5--5--|
|1-----1-----1-----------------------------------|
 ,  .  .  .  ,  .  .  .  ,  .  .  .  ,  .  .  .

|------------------------------------------------|
|------------------------------------------------|
|------------------------------------------------|
|------------------------------------------------|
|4--4--4--4--3--3--3--3--------------------------|
|------------------------4--4--4--4--3--3--3-----|
 ,  .  .  .  ,  .  .  .  ,  .  .  .  ,  .  .  .

|------------------------------------------------|
|------------------------------------------------|
|------------------------------------------------|
|------------------------------------------------|
|------------1-----------------------1-----------|
|1-----1-----1-----------1-----1-----1-----------|
 ,  .  .  .  ,  .  .  .  ,  .  .  .  ,  .  .  .