Mortification - Peace In The Galaxy Text Guitar Tab

Learn the song with the online tablature player
Peace in the Galaxy
Mortification
From the albums EnVision EvAngelene and Hard and Heavy from Down Under
1996 Rowe Productions

Guess what guitar this was tabbed on! Tune guitars to Eb.  You probably
know how to play this song anyway, but here it is.  I don't have the
between verse solos, so if any of you do, well, good job.

     A
|--------------|-----------|--------------------|
|--------------|-----------|--------------------|
|--------------|-----------|--------------------|
|--2--2--7--2--|--2--5--2--|--2--5--2--4--5--3--|x6
|--2--2--7--2--|--2--5--2--|--2--5--2--4--5--3--|
|--0--0--5--0--|--0--3--0--|--0--3--0--2--3--1--|
Fascination with the stars,
Consequences of the crystal factor
Answers to life are far
Looking for hope in all the wrong places

Riff B  x4                                        [2. 4.   ]
|---------|---------|---------|---------|---------|--------|
|---------|---------|---------|---------|---------|--------|
|---------|---------|---------|---------|---------|--------|
|----2----|----5----|----4----|----5----|----7----|--5--2--|
|----2----|----5----|----4----|----5----|----7----|--5--2--|
|----0----|----3----|----2----|----3----|----5----|--3--0--|
Destined to die, lost in lies, fated(solo)
Hating your life, answers none taken

     A
|--------------|-----------|--------------------|
|--------------|-----------|--------------------|
|--------------|-----------|--------------------|
|--2--2--7--2--|--2--5--2--|--2--5--2--4--5--3--|x6
|--2--2--7--2--|--2--5--2--|--2--5--2--4--5--3--|
|--0--0--5--0--|--0--3--0--|--0--3--0--2--3--1--|
Transindental mediation
Separation to the new age.
Satan had bound your mind
The angel of light transfixion.

Riff B  x4                                        [2. 4.   ]
|---------|---------|---------|---------|---------|--------|
|---------|---------|---------|---------|---------|--------|
|---------|---------|---------|---------|---------|--------|
|----2----|----5----|----4----|----5----|----7----|--5--2--|
|----2----|----5----|----4----|----5----|----7----|--5--2--|
|----0----|----3----|----2----|----3----|----5----|--3--0--|
Destined to die, lost in lies, fated(solo)
Hating your life, answers none taken

     A
|--------------|-----------|--------------------|
|--------------|-----------|--------------------|
|--------------|-----------|--------------------|
|--2--2--7--2--|--2--5--2--|--2--5--2--4--5--3--|x2
|--2--2--7--2--|--2--5--2--|--2--5--2--4--5--3--|
|--0--0--5--0--|--0--3--0--|--0--3--0--2--3--1--|

Chorus  Riff C x2
|----------|----------|----------|-------------|
|----------|----------|----------|-------------|
|----------|----------|----------|-------------|
|----------|----------|----------|--14--12-12--|
|----------|----------|----------|--14--12-10--|
|-00000000-|-55555555-|-77777777-|--12--10--8--|
And they'll be
When people trust                                                [2.       ]
|----------|----------|----------|-------------|---------|
|----------|----------|----------|-------------|---------|
|----------|----------|----------|-------------|---------|
|----------|----------|----------|---3--4--5---|-3--4--5-|
|----------|----------|----------|---3--4--5---|-3--4--5-|
|-00000000-|-55555555-|-33333333-|---1--2--3---|-1--2--3-|
Peace in the galaxy
The truth in Christianity, Sanctity

New before this solo there is a part where Steve plays a cool bass part
and the guitar does some clean work. Now I don't know the exact notes
but I know the chords he uses.

After that last G  Gb
the chord he plays is  Eb|Ab|Db|Gb|Bb|Ab
                                    7  7  9  9  7  x

Now you all know that this is a standard Barre chord form meaning you
can play it on any fret as long as you hold this fingering. This is what
Lincoln does. He just moves it up one fret per measure, and then plays
them going down before the solo. All this time he is playing notes along
the chord. Listen to the song and you will know what I mean.
So this is the order:

Eb Ab Db Gb Bb Eb  Eb Ab Db Gb Bb Eb      Eb Ab Db Gb Bb Eb
7  7  9  9  7  x   7  7  9  9  7  7       8  8  10 10 8  8
First Chord       Chord he plays notes       One measure
                            on for 1 measure

Eb|Ab|Db|Gb|Bb|Eb   And then he messes around on that                 9
9  11 11 9  9    chord for two beats then descends going:
  One measure

|--8--8--7-7--6--|
|--8--8--7-7--6--|
|-10-10--9-9--8--|
|--8--8--7-7--6--|
|--8--8--7-7--6--|

Solo
|---------------|-------------------|-10-10-9-10987-8-10-8-|
|-6-4-6--4--7-6-|-8-7-5-3-2-3-5-7-5-|----------------------|
|---------------|-------------------|----------------------|
|---------------|-------------------|----------------------|
|---------------|-------------------|----------------------|
|---------------|-------------------|----------------------|

|------------------------|---------------|-----------------|
|-------7-7--6-6--5-5--4-|-6-4-6--4--7-6-|-8-7-5-3-2-3-5-7-|
|-3-3-0------------------|---------------|-----------------|
|------------------------|---------------|-----------------|
|------------------------|---------------|-----------------|
|------------------------|---------------|-----------------|

|----------|-10-10-9-10987-8-10-8-|------------------------|
|--5--7-5--|----------------------|-------7-7--6-6--5-5--4-|
|----------|----------------------|-3-3-0------------------|
|----------|----------------------|------------------------|
|----------|----------------------|------------------------|
|----------|----------------------|------------------------|

     D
|---------------|--------------------|---------------|
|---------------|--------------------|---------------|
|---------------|--------------------|---------------|
|--2-2--7-8--9--|--2-2-7-8-11-10--9--|--2-2--7-8--9--|
|--2-2--7-8--9--|--2-2-7-8-11-10--9--|--2-2--7-8--9--|
|--0-0--5-6--7--|--0-0-5-6--9--8--7--|--0-0--5-6--7--|

|------------------|
|------------------|
|------------------|
|--2-2--7-8-11-10--|x2
|--2-2--7-8-11-10--|
|--0-0--5-6--9--8--|

|----------------|--------------------|----------------|
|----------------|--------------------|----------------|
|----------------|--------------------|----------------|
|--2-2--7--8-----|--2-2-7-8-11-10--9--|--2-2--7--8-----|
|--2-2--7--8-----|--2-2-7-8-11-10--9--|--2-2--7--8-----|
|--0-0--5--6-----|--0-0-5-6--9--8--7--|--0-0--5--6-----|

|------------------|----------------|--------------|
|------------------|----------------|--------------|
|------------------|----------------|--------------|
|--2-2--7-8-11-10--|--2-2--7--8-----|--14-14-9-10--|
|--2-2--7-8-11-10--|--2-2--7--8-----|--14-14-9-10--|
|--0-0--5-6--9--8--|--0-0--5--6-----|--12-12-7--8--|

Chorus  Riff C x 1.5
|----------|----------|----------|-------------|
|----------|----------|----------|-------------|
|----------|----------|----------|-------------|
|----------|----------|----------|--14--12-12--|
|----------|----------|----------|--14--12-10--|
|-00000000-|-55555555-|-77777777-|--12--10--8--|
And they'll be
When people trust                                                [2.       ]
|----------|----------|----------|-------------|---------|
|----------|----------|----------|-------------|---------|
|----------|----------|----------|-------------|---------|
|----------|----------|----------|---3--4--5---|-3--4--5-|
|----------|----------|----------|---3--4--5---|-3--4--5-|
|-00000000-|-55555555-|-33333333-|---1--2--3---|-1--2--3-|
Peace in the galaxy
The truth in Christianity, Sanctity

     A
|--------------|-----------|--------------------|
|--------------|-----------|--------------------|
|--------------|-----------|--------------------|
|--2--2--7--2--|--2--5--2--|--2--5--2--4--5--3--|x6
|--2--2--7--2--|--2--5--2--|--2--5--2--4--5--3--|
|--0--0--5--0--|--0--3--0--|--0--3--0--2--3--1--|
Situation of change
you must arise and forsake
satanic lies of today
arise and ambrace the glory.

Riff B  x4                                        [2. 4.   ]
|---------|---------|---------|---------|---------|--------|
|---------|---------|---------|---------|---------|--------|
|---------|---------|---------|---------|---------|--------|
|----2----|----5----|----4----|----5----|----7----|--5--2--|
|----2----|----5----|----4----|----5----|----7----|--5--2--|
|----0----|----3----|----2----|----3----|----5----|--3--0--|
Destined for life, found in Christ, salvation (solo)
loving your life answers all taken

Chorus  Riff C x2
|----------|----------|----------|-------------|
|----------|----------|----------|-------------|
|----------|----------|----------|-------------|
|----------|----------|----------|--14--12-12--|
|----------|----------|----------|--14--12-10--|
|-00000000-|-55555555-|-77777777-|--12--10--8--|
And they'll be
When people trust                                                [2.       ]
|----------|----------|----------|-------------|---------|
|----------|----------|----------|-------------|---------|
|----------|----------|----------|-------------|---------|
|----------|----------|----------|---3--4--5---|-3--4--5-|
|----------|----------|----------|---3--4--5---|-3--4--5-|
|-00000000-|-55555555-|-33333333-|---1--2--3---|-1--2--3-|
Peace in the galaxy
The truth in Christianity, Sanctity

|--------------|-------------------|
|--------------|-------------------|
|--------------|-------------------|
|---3---4---5--|--2-2--7-2--2-5-2--|
|---3---4---5--|--2-2--7-2--2-5-2--|
|---1---2---3--|--0-0--5-0--0-3-0--|
   Sanctity