Mortification - Satans Doom Text Guitar Tab

Learn song with the online tabulature player
Band - Mortification
Song - Satans Doom

My 1st tab, might not be 100% correct but it sounds close enough...Enjoy

Tune down 1 1/2 steps

Intro
|--------------------------|
|--------------------------|
|--------------------------|
|---------9-9----------9-9-|
|---------7-7----------7-7-|
|-0-0-0-0-----0-0-0-0------| (then bass comes in)
  * * * *     * * * *

Chorus Riff                     1st   2nd
|-----------------------------|----|-----|
|-----------------------------|----|-----|
|-----------------------------|----|-----|
|-------4/5-----5\4-----5\4---|----|-----|
|-------2/3-----3\2-----3\2---|-5--|-5/7-|
|-0-0-0-----0-0-----0-0-----0-|-3--|-3/5-|
  * * *     * *     * *     *

Verse Riff
|------------------------------|
|------------------------------|
|------------------------------|
|-2----------3----5----3/5\3---|
|-2----------3----5----3/5\3---|
|-0------0-0-1----3----1/3\1---|
         * *
|------------------------------------|
|------------------------------------|
|------------------------------------|
|------------------------------------|
|-2-222-222-222-223-333-335-55-3/5\3-|
|-0-000-000-000-001-111-113-33-1/3\1-|
  * *** *** *** *** *** *** **

Verse Riff 2
|--------------------------------------|
|--------------------------------------|
|--------------------------------------|
|-2--------/9-9------3----5----3/5\3---|
|-2--------/7-7------3----5----3/5\3---|
|-0---0-0------------1----3----1/3\1---|
      * *
Rhythm
|----------------------------------------------|
|----------------------------------------------|
|----------------------------------------------|
|-2-------7-5-------------------7-5---5/7------|
|-2-------5-3---3-5---5--2------5-3---3/5---5--|
|-0--0-0------0-----0-3--0--0-0-----0-----0-3--|
     * *      * * * *       * *     *     *
Lead                           1st 2nd
|-----------------------------|---|---|
|-------(slightly p.m)--------|---|---|
|-----------------------------|---|---|
|-2-3-2---2-3-2---2-3-2---2-3-|-2-|-5-|
|-------5-------5-------5-----|---|---|
|-----------------------------|---|---|
                                      1st  2nd
|------------------------------------|---|----|
|------------------------------------|---|----|
|-9-10-9----9-10-9----9-10-9----9-10-|-9-|-12-|
|--------12--------12--------12------|---|----|
|------------------------------------|---|----|
|------------------------------------|---|----|

Fast Riff                  1st   2nd
|-------------------------|---|-----|---|
|-------------------------|---|-----|---|
|-------------------------|---|-----|---|
|-------4/5---5\4---5\4---|---|-----|-9-|
|-------2/3---3\2---3\2---|-5-|-5/7-|-7-| let E chord ring out...
|000000----000---000----0-|-3-|-3/5-|-0-|
 ******    ***   ***    *
(might be less/more pm notes?)


|-----------------------------------------------------------------|
|-----------------------------------------------------------------|
|-----------------------------------------------------------------|
|-------------------------2-3-2------------------------2-3-2---5--|
|-2-2-2-------2-----2-----------5----------2-----2-----------5----|
|-0-0-0-0-0-0-0-0-0-0-0-0----------0-0-0-0-0-0-0-0-0-0------------|
        * * *   * *   * * * * * *  * * * *   * *   * * * * * * *
                                2nd
|------------------------------|---|
|------------------------------|---|
|------------------------------|---|
|----------------------2-3-2---|-5-|
|---------2-----2------------5-|---|
|-0-0-0-0-0-0-0-0-0-0----------|---|
  * * * *   * *   * *  * * * *   *
    (this riff speeds up later on)

                                2nd
|------------------------------|---|
|------------------------------|---|
|----------------------2-3-2---|-5-|
|---------2-----2------------5-|---|
|-0-0-0-0-0-0-0-0-0-0----------|---|
|------------------------------|---|
  * * * *   * *   * *  * * * *   *

|------------------------------------|
|------------------------------------|
|------------------------------------|
|----------9-------7-------5--4/5\4--|
|-2--------7-------5-------3--2/3\2--|
|-0---0-0-----0-0-----0-0------------|
      * *     * *     * *

Thats all the riffs, you can work out the structure for the song, its pretty simple
Cheers

Any questions feel free to message me on here or by my email address which is 
metalupyourass18@hotmail.co.uk