Mortification - The Majestic Infiltration Of Order Text Guitar Tab

Learn the song with the online tablature player
The Majestic Infiltration Of Order

         Tune down
          1 1/2

      Intro Riff

  C#|-------------------------------+-------------------------------||
  G#|-------------------------------+-------------------------------||
  E |-------------------------------+-------------------------------||
  B |--5--5---5--5----4--4----4--4--+--3--3----3--3-----------------||
  F#|--3--3---3--3----2--2----2--2--+--1--1----1--1----2----2-------||
  C#|-------------------------------+------------------0----0-------||

           A

  C#|------------------------------+--------------------------------||
  G#|------------------------------+--------------------------------||
  E |------------------------------+--------------------------------||
  B |------------------------------+--------------------------------||
  F#|--5--5---5--5---4--4---4--4---+--3--3---3--3---2----2----------||
  C#|--3--3---3--3---2--2---2--2---+--1--1---1--1---0----0----------||

      Guitar Solo 1

      C#5

  C#|-----------------------------+-------------------------------------||
  G#|-----------------------------+-------------------------------------||
  E |--9--9---9--9---9--9---9--9--+--9--9---10--10---12--12---10--10----||
  B |-----------------------------+-------------------------------------||
  F#|-----------------------------+-------------------------------------||
  C#|-----------------------------+-------------------------------------||

     C#5                                C#5

  C#|--------------------------------+----------------------------------||
  G#|--------------------------------+----------------------------------||
  E |--9--9---7--7---9--9---10--10---+---9-------------------\----------||
  B |--------------------------------+----------------------------------||
  F#|--------------------------------+----------------------------------||
  C#|--------------------------------+----------------------------------||

       Guitar Solo 2

      C#5

  C#|---------------------8--10--12--10--8---------------------8------||
  G#|-------------10--12--------------------12--10--8--10--12---------||
  E |--9--10--12------------------------------------------------------||
  B |-----------------------------------------------------------------||
  F#|-----------------------------------------------------------------||
  C#|-----------------------------------------------------------------||

       C#5

  C#|--10--12--10--8-------------------------------------------------||
  G#|-----------------12--10-----------------------------------------||
  E |-------------------------12--10--9------9--10--12--10--9--------||
  B |------------------------------------12--------------------12----||
  F#|----------------------------------------------------------------||
  C#|----------------------------------------------------------------||

      C#5

  C#|-----------------------------------------------------------------||
  G#|-----------------------------------------------------------------||
  E |--9--10--12--10--9------9--10--12--10--9------9--10--12--10------||
  B |--------------------12--------------------12---------------------||
  F#|-----------------------------------------------------------------||
  C#|-----------------------------------------------------------------||

      C#5                                            C#5

  C#|----------------------------------------------------------------||
  G#|----------------------------------------------------------------||
  E |--9-------------------------------------------------------------||
  B |-----12--10--9-----9--10--12--10--9-----------------------------||
  F#|----------------12-------------------12--10--8---7--------------||
  C#|----------------------------------------------------------------||

        C#5
  C#|--------------------------------||
  G#|--------------------------------||
  E |--------------------------------||
  B |--------------------------------||
  F#|---(7)-------------\------------||
  C#|--------------------------------||

       Outro

       C#5                          C#5

  C#|-----------------------------+--------------------------------------||
  G#|-----------------------------+--------------------------------------||
  E |---9-------------------------+--9--9--10--10--12--12--10--10--------||
  B |-----------------------------+--------------------------------------||
  F#|-----------------------------+--------------------------------------||
  C#|-----------------------------+--------------------------------------||

     C#5

  C#|----------------------------+----------------------------------------||
  G#|----------------------------+----------10--10--11--11--10--10--------||
  E |--9--9--7--7--9--9--10--10--+--12--12--------------------------------||
  B |----------------------------+----------------------------------------||
  F#|----------------------------+----------------------------------------||
  C#|----------------------------+----------------------------------------||

      C#5

  C#|------------------------------+--------------------------------------||
  G#|------------------------------+---------------h--p-h--p-h--p-h--p----||
  E |--12--12--10--10--9--9--9--9--+--9--9--9--9--9-10-9-10-9-10-9-10-----||
  B |------------------------------+--------------------------------------||
  F#|------------------------------+--------------------------------------||
  C#|------------------------------+--------------------------------------||

     C#5

  C#|------------------------------------------+----------------------||
  G#|---h--p-h--p-h--p-h--p-h--p-h--p-h--p-h---p--h--p-h--p-h--p-h--p-||
  E |--9-10-9-10-9-10-9-10-9-10-9-10-9-10-9-10-+-9-10-9-10-9-10-9-10--||
  B |------------------------------------------+----------------------||
  F#|------------------------------------------+----------------------||
  C#|------------------------------------------+----------------------||

      C#5

  C#|----------------------+------------------------------------------||
  G#|---h--p-h--p-h--p-h---p--h--p-h--p-h--p-h--p-h--p-h--p-h--p-h----||
  E |--9-10-9-10-9-10-9-10-+-9-10-9-10-9-10-9-10-9-10-9-10-9-10-9-10--||
  B |----------------------+------------------------------------------||
  F#|----------------------+------------------------------------------||
  C#|----------------------+------------------------------------------||

      C#5                        C#5

   C#|----------------------------------------------------------------||
   G#|---h--p-h--p-h--p-h---------------------------------------------||
   E |--9-10-9-10-9-10-9-10--9---9------------------\-----------------||
   B |----------------------------------------------------------------||
   F#|----------------------------------------------------------------||
   C#|----------------------------------------------------------------||

                        Words

Intro Riff
8 times )
                GUITAR SOLO 1
                VERSE with Riff A ( 4 times )
                GUITAR SOLO 2
                CHORUS with Riff A ( 4 times )
                Outro

           p.m.   = palm muted
           Nh     = Natural harmonic
            h     = hammer-on
            p     = pull-off
           ah     = artificial harmonic
            /     = slide up
            \     = slide down
            ^     = bend
            ()    = tied note

            Contact me:

                Antti Pernu
                Huhtapellontie 2
                68300 K„lvi„
                Finland, Europe