Mortification - Whom They Would Kill Text Guitar Tab

Learn the song with the online tablature player
Tis is a cool song, I dont know much, really not much,
But its a start.

If you have any commands, ore corrections
please mail them to me,
Dont be shy.

Play to His glory

I only have found one riff the part of:
"Who brings a strainger....."

---|-------------------------------------------------------------------------|
-1-|-------------------------------------------------------------------------|
---|*----------------------------------------------------------------------*-|
---|*----------------------------------------------------------------------*-|
---|---3/5\3--2-2-2-2-2-2-2-2-2-2-2--------3/5\3--2-2-2-2-2-2-2-2-2-2-2-2----|
---|---1/3\1--0-0-0-0-0-0-0-0-0-0-0--------1/3\1--0-0-0-0-0-0-0-0-0-0-0-0----|
 p.m.         - - - - - - - - - - -               - - - - - - - - - - - -

---|-------------------------------------------------------------------------|
-2-|-------------------------------------------------------------------------|
---|*----------------------------------------------------------------------*-|
---|*--3/5\3--2-2-2-2-2-2-2-2-2-2-2--------3/5\1--2-2-2-2-2-2-2-2-2-2-2-2--*-|
---|---1/3\1--0-0-0-0-0-0-0-0-0-0-0--------1/3\1--0-0-0-0-0-0-0-0-0-0-0-0----|
---|-------------------------------------------------------------------------|
 p.m.         - - - - - - - - - - -               - - - - - - - - - - - -