Mostly Autumn - Coming To Text Guitar Tab

Learn the song with the online tablature player
good song

|-------------------------------------------------------------------------|
|-------------------------------------------------------------------------|
|-------------------------------------------------------------------------|
|-7-7-7-7-7-7-7-7-7-7-7-7-7---------------------------9-9-9-9-9-9-9-9-9-9-|
|-5-5-5-5-5-5-5-5-5-5-5-5-5-7-7-7-7-7-7-7-7-7-7-7-7-7-7-7-7-7-7-7-7-7-7-7-|
|---------------------------5-5-5-5-5-5-5-5-5-5-5-5-5---------------------|

|---------------------------------|
|---------------------------------|
|---------------------------------|
|-9-9-9---------------------------|
|-7-7-7-9-9-9-9-9-9-9-9-9-9-7-7-7-|
|-------7-7-7-7-7-7-7-7-7-7-5-5-5-|