Mostly Autumn - Tearing At The Faerytale Text Guitar Tab

Learn the song with the online tablature player
The solo is not tabbed note by note, and is not at all accurate. It is mainly to guide
mere humans (I do not play the solo as the tab reads, I rather variate from time to time
it).

I have tabbed it from scratch myself and thus not stolen it from any other tab (there
any!). Feel free to improve it with or without giving credit. All credit goes to the
musicians of Mostly Autumn and Howard Sparnenn. Rest in Peace. My hat is forever tipped
you.

Tab:

Am
Asus2
a7sus (x02030)
Em
A#
C
F

The arpeggio used up until "start to thaw, and you are" follows a pattern like this:

|-----------0-----------0---------0---------0---------0---------0-------0--0--|
|-------1-------------1-------1-----------1-------1-----------1------------1--|
|---------2---------2-----------2-------2-----------2-------2---------2----2--|
|-----2-----------2---------2---------2---------2---------2---------2------2--|
|---0-----------0---------0---------0---------0---------0---------0--------0--|
|-----------------------------------------------------------------------------|

              "in your fath"       "he holds the"       "in the sky"    "for a"
|-----------0-----------0---------0---------0---------0---------0-------0--0--|
|-------1-------------1-------1-----------1-------1-----------1------------1--|
|---------2---------2-----------2-------2-----------2-------2---------2----2--|
|-----2-----------2---------2---------2---------2---------2---------2------2--|
|---0-----------0---------0---------0---------0---------0---------0--------0--|
|-----------------------------------------------------------------------------|

              "and three"           "so bright"         "They cut"      "stra"
|-----------0-----------0---------0---------0---------0---------0-------0--0--|
|-------1-------------1-------1-----------1-------1-----------1------------1--|
|---------2---------2-----------2-------2-----------2-------2---------2----2--|
|-----2-----------2---------2---------2---------2---------2---------2------2--|
|---0-----------0---------0---------0---------0---------0---------0--------0--|
|-----------------------------------------------------------------------------|

              "Every"               "Like a"            "Leaves the"    "of the"
|-----------0-----------0---------0---------0---------0---------0-------0--0--|
|-------1-------------1-------1-----------1-------1-----------1------------1--|
|---------2---------2-----------2-------2-----------2-------2---------2----2--|
|-----2-----------2---------2---------2---------2---------2---------2------2--|
|---0-----------0---------0---------0---------0---------0---------0--------0--|
|-----------------------------------------------------------------------------|

|--0--|
|--1--|
|--2--|
|--2--|
|--0--|
|-----|

Drums and bass guitar enter, repeat the above to verse 2 lyrics until "start to thaw,
you are"

After the sole Am chord, start strumming C without lyrics for 8 measures, until:

C       C        C       C
Another chance, another day

C       C        C       C
'Til he drags his shadow across the sand

C       C        C       C
And proudly mounts his horse

C       C        C       C
A heart full of memories

C       C        C       C
A million bright hellos

C       C        C       C
He lays the sun, across the diamonds

C       C        C       C
A blinding light that lays the path

C       C        C       C
He tips his hat, and rides

Am         A#
Wild west heroes

F                      C
They change the world, they keep it safe

Am                A#
As they ride the ice,

F                  C
between the stars, They leave a trail for us

(electric guitar enters with power chords)

Am                     Em
You got it right mate, so right

F
And the town remains

                      C
But it's not the same anymore

Am
You built the walls so strong

Em
They'll never fall down

F                   C
So hats off to you, beautiful friend

Am        A#
Wild west heroes

F                      C
They change the world, they make it shine

Am              A#
As you ride the ice,

F                    C
between the heavens, Leave a trail for us

Solo
They'll never fall down

Am        A#
Wild west heroes

F                      C
They change the world, they keep it safe

Am               A#
As they ride the ice,

F                   C
they leave a trail. For us to follow

Am        A#
Wild west heroes

F                      C
They change the world, they make it shine

Am              A#
As you ride the ice,

F                   C
between the heavens Leave a trail for us

Am           A#            F             C
(You took it away, took it away, took it away)

Am       Asus2      A7sus    Am x6

end on Am

Solo

   C
...Leave a trail for us

e|-/12--12~--12~--12~--12b--12br--12~--12~--12~-12\--8-8-7p5------|
b|----------------------------------------------------------5-----|
g|----------------------------------------------------------------|
d|----------------------------------------------------------------|
a|----------------------------------------------------------------|
e|----------------------------------------------------------------|

e|-------------------------------------------5/8--7--5--7--7b8br7~|
b|-5--5h6--6b--6b--6~-6p5--6b--5~--3--5~---5----------------------|
g|----------------------------------------------------------------|
d|----------------------------------------------------------------|
a|----------------------------------------------------------------|
e|----------------------------------------------------------------|

e|-7/13-12---------12/13--12------------15--17--19--19b20b21br19--|
b|---------13--10-------------13/17-17~---------------------------|
g|----------------------------------------------------------------|
d|----------------------------------------------------------------|
a|----------------------------------------------------------------|
e|----------------------------------------------------------------|

e|-19b21br19--19b20br19--19b20br19--19b20br19--19\--10--12-12~-12-|
b|----------------------------------------------------------------|
g|----------------------------------------------------------------|
d|----------------------------------------------------------------|
a|----------------------------------------------------------------|
e|----------------------------------------------------------------|

e|-12b13--br12h14b15--15h17--17~--15~-----------------------------|
b|------------------------------------18~--18~--18~--18~--15h17h18|
g|----------------------------------------------------------------|
d|----------------------------------------------------------------|
a|----------------------------------------------------------------|
e|----------------------------------------------------------------|

e|----------------15~-15~-16-17-16b17-16b17-16b18br16--15h16-15h16|
b|-18~--15-17-18~-------------------------------------------------|
g|----------------------------------------------------------------|
d|----------------------------------------------------------------|
a|----------------------------------------------------------------|
e|----------------------------------------------------------------|

e|-15~-15~--13--17-----13--17----13--17---13--17----13--13/19-----|
b|------------15--15-----15--15----15--15---15--15----15----------|
g|----------------------------------------------------------------|
d|----------------------------------------------------------------|
a|----------------------------------------------------------------|
e|----------------------------------------------------------------|

e|-19b20br19--19b21br20-20b21-20b21-20b22/17--12b13~-12b13br12----|
b|----------------------------------------------------------------|
g|----------------------------------------------------------------|
d|----------------------------------------------------------------|
a|----------------------------------------------------------------|
e|----------------------------------------------------------------|

e|-12p10-10p7-----------------------------------------------------|
b|------------7h8p7~--11~p10~h11~p9~------------------------------|
g|----------------------------------------------------------------|
d|----------------------------------------------------------------|
a|----------------------------------------------------------------|
e|----------------------------------------------------------------|