Mother Love Bone - Come Bite The Apple Text Guitar Tab

Learn the song with the online tablature player
MOTHER LOVE BONE - COME BITE THE APPLE

A classic Stone Gossard riff!

This is my first ever tab. I did find this elsewhere on the internet, however made a few
changes that I think were needed.
Please do not hesitate to tell me if anything is wrong.

|----------------------------------------------------|
|----------------------------------------------------|
|------------------9-10-9---------9-10-10s12--10-9---|
|-------7h9--9s12----------10s12---------------------|
|--7h9-----------------------------------------------|
|----------------------------------------------------|

|----------------------------------------------------|
|----------------------------------------------------|
|--------9-10-9--------9-10-9--------9-10-10s12------|
|--10-12---------10s12---------10s12-----------------|
|----------------------------------------------------|
|----------------------------------------------------|

|----------------------------------------------------|
|------------12------------13------------------------|
|--10-9-9s14-----12b-12--14----12~-------------------|
|----------------------------------------------------|
|----------------------------------------------------|
|----------------------------------------------------|

~hihi7