Mother Mother - Train Of Thought Text Guitar Tab

Learn the song with the online tablature player
                             Train of Thought - Mother Mother

  D  G  A7
e|x |x |0|
B|3 |x |2|
G|2 |x |0|
D|0 |5 |2|
A|0 |5 |0|
D|0 |5 |-|

Intro
Verse:
e|----------------------|-------------------------------------------------|
B|--3---3---3-3333------|------0-----0---------0-----0--------------------|
G|--2---2---2-2222------|---11----7-----2---2-----6-----7-----------------|
D|0-0-0-0-0-0-0000-(x4)-|-0-0-0-0-0-0-0-0-0-0-0-0-0-0-0-0-(x2)------------|
A|0-0-0-0-0-0-0000------|-------------------------------------------------|
D|0---0---0-------------|-------------------------------------------------|
                          jump on my train yeah...
e|------------------------------------------------------------------------|
B|--------0--------0--------------0--------0------------------------------|
G|---11-------7--------------------------------7--------------------------|
D|---------------------7-----7--------11----------------------------------|
A|10-10-10-10-10-10-10-10-10-10-10-10-10-10-10----------------------------|
D|------------------------------------------------------------------------|
  I know what I have...
e|------------------------------------------------------------------------|
B|-----0-----0---------0-----0--------------------------------------------|
G|--11----7-----2---2-----6-----7---11----11----11--11----11----11--------|
D|0-0-0-0-0-0-0-0-0-0-0-0-0-0-0-0------9-----9---------9-----9------------|
A|--------------------------------0-0-0-0-0-0-0-0-0-0-0-0-0-0-0-0---------|
D|------------------------------------------------------------------------|
  jump on my tain yeah...
e|------------------------------------------------------------------------|
B|-----0-----0------------------------------------------------------------|
G|--11----7-----2---2---2---2-- 1/2 --------------------------------------|
D|0-0-0-0-0-0-0-0-0-0-0-0-0-0---------------------------------------------|
A|------------------------------------------------------------------------|
D|------------------------------------------------------------------------|

e|------------------------------------------------------------------------|
B|-----0-----0---------0-----0------7--0-----0---------0-----0------------|
G|--11----7-----2---2-----6-----7---------7---------------6-----7---------|
D|0-0-0-0-0-0-0-0-0-0-0-0-0-0-0-0-5-5-5-5-5-5-5-7---7-5-5-5-5-5-5---------|
A|0-0-0-0-0-0-0-0-0-0-0-0-0-0-0-0-5-5-5-5-5-5-5-5-5-5-5-5-5-5-5-x---------|
D|0-0-0-0-0-0-0-0-0-0-0-0-0-0-0-0-5-5-5-5-5-5-5-5-5-5-5-5-5-5-3-3---------|

e|------------------------------------------------------------------------|
B|-----0-----0---------0-----0--------------------------------------------|
G|--11----7-----2---2-----6-----7---11----11----11--11----11----11--------|
D|0-0-0-0-0-0-0-0-0-0-0-0-0-0-0-0------9-----9---------9-----9------------|
A|0-0-0-0-0-0-0-0-0-0-0-0-0-0-0-0-0-0-0-0-0-0-0-0-0-0-0-0-0-0-0-0---------|
D|0-0-0-0-0-0-0-0-0-0-0-0-0-0-0-0-----------------------------------------|

e|------------------------------------------------------------------------|
B|-----0-----0----------------------xxxx----------------------------------|
G|--11----7-----2---2---2----slide--xxxx----------------------------------|
D|0-0-0-0-0-0-0-0-0-0-0-0-----------xxxx----------------------------------|
A|0-0-0-0-0-0-0-0-0-0-0-0-----------xxxx----------------------------------|
D|0-0-0-0-0-0-0-0-0-0-0-0-----------xxxx----------------------------------|

P.M. these chords

D
The famous people...
D
They stand right...
G
The famous people...
D
I got my demons...
A7                   D
Hey famous people...   We'll make a movie...

[First verse as the outro]