Mother Superior - The Wiggle Text Guitar Tab

Learn the song with the online tablature player
---------------------------------------------------------------0-|
---------------------------------------------------------------0-|
---------------------------------------------------------------0-|
---------------------------------------------------------------0-|let ring
--------5-7-5-7-5-77----5-7-5-7777----5-7-5-7-5-77-----5-7-5---0-|
--//7-7-------------//7-----------//7--------------//7---------0-|
 slide

-----------------------------------------------------|
-----------------------------------------------------|
-----------------------------------------------------|
-----------------------------------------------------|
--------5-7-5-7-5-77----5-7-5-(7)------5-7-5-7-5-77--|
--//7-7-0-0-0-0-0-0-//7-0-0-0-(5)--//7-0-0-0-0-0-----|

--------------------------------I----------------------------|
--------------------------------I----------------------------|
--------------------------------I----------------------------|
-----------------------------9--I----------------------------|
--8-----7-----5-----22---2---7--I--8-----7-----5-----22---2--|
--6--0--5--0--3--0--00---0------I--6--0--5--0--3--0--00---0--|

                                   G5  A5  G5  A5A5A5  E5
don't ask for my side of the story
i don't wanna see you cry cry cry
yeah i ain't tryin' to steal nobody's glory
little girl let me tell you why

i ain't lookin' for no companion
feel to good being on my own
i ain't searchin' for no folse witness
i just wanna see you wiggle one time that's all

well i did not ask for you're tel. number
don't even want you tagging along
you seems to think that i
weel baby you'we got it all wrong