Motion City Soundtrack - A Lifeless Ordinary Need A Little Help Text Guitar Tab

Learn the song with the online tablature player
helloooo , my crush on this album :
A LIFE LESS ORDINARY ( need a little help )
(My dinosaur life )
MOTION CITY SOUNDTRACK
It's just the basic chords , you will have
to find the strumming yourself ( not so hard )

Vive MCS !

VERSES
:

-------------|
-------------|
----10-8-----|
-10-10-8-8---|
-10-8--6-8---|
-8-------6---|

"I didn't think I would make it,  thought everybody was against me ... "

Pre-Chorus

----------|
----------|
----------|
-6-12-8---|
-6-12-8---|
-4-10-6---|

 " i want to be somewhere else "

CHORUS

----------      ------------|
----------      ------------|
-8--------      -8----------|
-8-8-10-6-      -8-8-6-12-8-|
-6-8-10-6-      -6-8-6-12-8-|
---6-8--4-  (X3)---6-4-10-6-|

" i think i can figure it out but ... "

Break

ouch humm something like that , i guess ? , maybe :

--------------------------------------------------------------|
--------------------------------------------------------------|
--------------------------------------------------------------|
-----------------------------8-8---------8-8------------------|
---10-10---6-6---10-10--6-6-------10-10-------10--10----------|
--------------------------------------------------------------|

------------------------------------------------------------------|
------------------------------------------------------------------|
--------------------------------10-----10----10----10-------------|
-----------------------------8------8------8-----8----------------|
---10-10---6-6---10-10--6-6---------------------------------------|
------------------------------------------------------------------|      etc ...

i think the end of the break is the chorus in arpeggio

Cheers