Motion City Soundtrack - Cant Finish What You Started Text Guitar Tab

Learn the song with the online tablature player
Intro x4
e --------------------------------------------------------------|
b ----------------------5-5-------5-5---------------------------|
g --7-7--x-x--7-7--x-x--6-6--x-x--6-6--x-x--4-4--x-x--4-4--x-x--|
d --x-x--x-x--x-x--x-x--x-x--x-x--x-x--x-x--x-x--x-x--x-x--x-x--|
A --5-5--x-x--5-5--x-x--5-5--x-x--5-5--x-x--5-5--x-x--5-5--x-x--|
D --------------------------------------------------------------|

e --------------------------------------------------------------|
b --------------------------------------------------------------|
g --4-4--x-x--4-4--x-x------------------------------------------|
d --x-x--x-x--x-x--x-x------------------------------------------|
A --5-5--x-x--5-5--x-x------------------------------------------|
D --------------------------------------------------------------|

Keyboard Intro on Guitar x2
e --------------------------------------------------------------|
b ------7---8-7----------8-7---7------7---8-7----------8-7---7--|
g ----7---7-----7-9--7-9-----7------7---7-----7-9--7-9-----7----|
d --7-----------------------------7-----------------------------|
A --------------------------------------------------------------|
D --------------------------------------------------------------|

Verse x8
Same as intro)

Chorus
e --------------------------------------------------------------------------------|
b --------------------------------------------------------------------------------|
g --------------7777-----------------------------------77-77-44-22----------------|
d --5555--7777--7777--9999-----X2-then---5555---7777---77-77-44-22--5555---7777---|
A --5555--7777--5555--9999---------------5555---7777---55-44-22-00--5555---7777---|
D --5555--7777--------9999---------------5555---7777----------------5555---7777---|

Verse x6

Chorus

Bridge
Guitar 1, Clean) x3
e ----------------------------------|
b ----------------------------------|
g ----------------------------------|
d --7--x8--11--x8--4--x8--22200022--|
A --5-------9------2------33333333--|
D ----------------------------------|

Then...
e -------------------------------------------|
b -------------------------------------------|
g -------------------------------------------|
d --7--x8--11--x8--4--x8--2222-0000-77777777-|
A --5-------9------2------3333-3333-77777777-|
D ----------------------------------77777777-|
                                                   p.m. . . (gradually open palm mute)

Bridge
Guitar 2, Distortion) Happens at the start of the 3rd & 4th repeat of Guitar 1
e --------------------------------------------------------------|
b --------------------------------------------------------------|
g --------------------------------------------------------------|
d --0-0--let ring-----------------------------------------------|
A --0-0---------------------------------------------------------|
D --0-0---------------------------------------------------------|

Chorus x2

After last Chorus (let ring)
e --------------------------------------------------------------|
b -------2------------------------------------------------------|
g --0----2------------------------------------------------------|
d --0----2------------------------------------------------------|
A --2----0------------------------------------------------------|
D --5-----------------------------------------------------------|

Intro x2

Outro
e --------------------------------------------------------------|
b --------------------------------------------------------------|
g ----------2-22-----------------6-------------------------7----|
d -0-00--4--2-22--4--5-55--4--7--6---x3-------------0------7----|
A -0-00--4--4-44--4--5-55--4--7--4----------END ON--0--OR--5----|
D -0-00--4--------4--5-55--4--7---------------------0-----------|