Motion City Soundtrack - Indoor Living Text Guitar Tab

Learn the song with the online tablature player
Guitar 1 Intro

|---------------------------------2----2--------------|
|----4------4------4----4-----2-----------4--2--------|
|-----4------4----------------------------------3-----|
|-------------------------------4----4----------------|  X2
|--2----2-2----2-2------------------------------------|
|---------------------4---4-4-------------------------|

Guitar 2 Intro

|-----------------------------------------------|
|-----------------------------------------------|
|-----------------------------------------------|
|-----------------------------------------------| X2
|-----------------------------------------------|
|-----------------------------------------------|

Guitar 1 Verse

|-----------------------------------------------|
|------4----------------------------------------|
|-----------------------------------------------|
|-----------------------------------------------| X1
|--2-2------------------------------------------|
|-----------------------------------------------|

Guitar 2 Verse

|-----------------------------------------------|
|-----------------------------------------------|
|--4-4-4-4-4-4-4-4------------------------------|
|--4-4-4-4-4-4-4-4-6-6-6-6-6-6-6-6--------------| X3
|--2-2-2-2-2-2-2-2-6-6-6-6-6-6-6-6--------------|
|------------------4-4-4-4-4-4-4-4--------------|

.................................................

Then both Guitars play..

|------------------------------------------|
|------------------------------------------|
|--4-4-4-4-4-4-4-4-------------------------|
|--4-4-4-4-4-4-4-4-6-6-6-6-6-6----6-6-6-6--|X1
|--2-2-2-2-2-2-2-2-6-6-6-6-6-6----6-6-6-6--|
|------------------4-4-4-4-4-4----4-4-4-4--|
.................. (the "I'm not gonna.." bit)

Guitar 1 Chorus

|--------------------------------------------------|
|---------------------------------4h5-5p4-4h5-2p0--|
|--4-4-4-4-4-4-4-4-4-4-----------------------------|
|--4-4-4-4-4-4-4-4-4-4-4-4-4-4-4-------------------|
|--2-2-2-2-2-2-2-2-2-2-4-4-4-4-4-------------------|
|----------------------2-2-2-2-2-------------------|

Guitar 2 Chorus

|-------------------------------------------|
|-------------------------------------------|
|--4-4-4-4-4-4-4-4-4-4----------------------|
|--4-4-4-4-4-4-4-4-4-4-4-4-4-4-4-4-4-4-4-4--|
|--2-2-2-2-2-2-2-2-2-2-4-4-4-4-4-4-4-4-4-4--|
|----------------------2-2-2-2-2-2-2-2-2-2--|

Then both guitars play

|-----------------------------------------------------|
|-----------------------------------------------------|
|--4-4-4-4-4-4----------------------------------------|
|--4-4-4-4-4-4-6-6-6-6-6-6-2-2-2-2-2-2-2-2-2-2-2-2-2--|
|--2-2-2-2-2-2-6-6-6-6-6-6-2-2-2-2-2-2-2-2-2-2-2-2-2--|
|--------------4-4-4-4-4-4-0-0-0-0-0-0-0-0-0-0-0-0-0--|
                           .........................

(The "I dont wana let you down" bit)