Motley Crue - Come On And Dance Text Guitar Tab

Learn the song with the online tablature player
Haven't seen this solo yet so I'm tabbing it out, the solos on Too fast for love are
to hear sometimes..so this is my best interpetation.  Hope this helps put you in the area.
I don't feel like breaking this one down by every measure so listen to the timing to get
right.  i'm just going to tab it in phases Enjoy and please rate.

    x----------------Let Ring-------------x

d-|--------------------------------------------|
a-|----4---4---4---4---4---4---4---4-----------|
f-|------3---3---3---3---3---3---3---3---------|
c-|--------------------------------------------|
g-|--------------------------------------------|
d-|--------------------------------------------|

                     GTR 2
d-|----0---------------------------------------|
a-|----0---------------------------------------|
f-|----3---------------------------------------|
c-|--------------------------------------------|
g-|--------------------------------------------|
d-|--------------------------------------------|

d-|----------------------------------------------------------(10b12r10)--|
a-|--3p0--4p0--5p0-5p0--6p0-6p0--7p0-7p0--8p0-8p0--9p0--10p0-------------|
f-|----------------------------------------------------------------------|
c-|----------------------------------------------------------------------|
g-|----------------------------------------------------------------------|
d-|----------------------------------------------------------------------|

d-|---------------------------9-------11\--|-----------------------------|
a-|--------------------9----8------10------|-----------------------------|
f-|-------------9----8----7------9---------|-----------------------------|
c-|------9----8----7-----------------------|-------(0h2p0)tr~------------|
g-|----8----7------------------------------|-------------------2\dive/2--|
d-|--7-------------------------------------|-----------------------------|

d-|----------------------------------------|-----------------------------|
a-|----------------------------------------|-----------------------------|
f-|--9-9-9-9---8-8-8-8---7-7-7-7---6-6-6-6-|-----------------------------|
c-|--7-7-7-7---7-7-7-7---7-7-7-7---7-7-7-7-|------------REPEAT-----------|
g-|----------------------------------------|-----------------------------|
d-|----------------------------------------|-----------------------------|

d-|--------------------------------------14------------(15b17)-----------|
a-|----------------------------14-----13---------------------------------|
f-|------------------14-----13-----12---------14/16----------------------|
c-|--------14-----13-----12----------------------------------------------|
g-|-----13-----12--------------------------------------------------------|
d-|--12------------------------------------------------------------------|

It sounds right to me but if you have suggestions, corrections, comments let me know.