Motley Crue - First Band On The Moon Text Guitar Tab

Learn the song with the online tablature player
Band- Motley Crue
Song- First Band On The Moon

/- slide up
\\\\- slide down
\\\\/- dive

intro
x4, play with a delay effect and distortion
d---------------------------------|
a---------------------------------|
f---------------------------------|
c---------------------------------|
g--2-2--5-5/-7--5-5/-7---5-5--7-5-|
d--0-0--3-3/-5--3-3/-5---3-3--5-3-|

verse
d--------------------------------------------------|
a--------------------------------------------------|
f--------------------------------------------------|
c--------------------------------------------------|
g--/77777777-/66666666-\\\\55555555-\\\\-44444444--|
d--/55555555-/44444444-\\\\33333333-\\\\-22222222--|

d---------------------------------|
a---------------------------------|
f---------------------------------|
c---------------------------------|
g--2-2--5-5/-7--5-5/-7---5-5--7-5-|
d--0-0--3-3/-5--3-3/-5---3-3--5-3-|

d---------------------------------|
a---------------------------------|
f---------------------------------|
c---------------------------------|
g--2-2--5-5/-7--5-5/-7---5-5--7-5-|
d--0-0--3-3/-5--3-3/-5---3-3--5-3-|

d--------------------------------------------------|
a--------------------------------------------------|
f--------------------------------------------------|
c--------------------------------------------------|
g--/77777777-/66666666-\\\\55555555-\\\\-44444444--|
d--/55555555-/44444444-\\\\33333333-\\\\-22222222--|

-----------------------------------|
a----------------------------------|
f----------------------------------|
c----------------------------------|
g--2-2--5-5/-7--5-5/-7---5-5--7-5--|
d--0-0--3-3/-5--3-3/-5---3-3--5-3--|

d-----------------------------------|
a-----------------------------------|
f-----------------------------------|
c-----------------------------------|
g--2-2--5-5/-7--5-5/-7---5-5-\\\\/--|
d--0-0--3-3/-5--3-3/-5---3-3-\\\\/--|

chorus
d---------------|
a---------------|
f---------------|
c--2~---5~---7~-|
g--2~---5~---7~-|
d--0~---3~---5~-|