Motley Crue - Motherfucker Of The Year Text Guitar Tab

Learn the song with the online tablature player
Thanks for everybody who requested this its a great song. One thing though, this is NOT
its really played i think. I tried to get an outline for future tabbers. I did this all
ear and my ear is 7 months old ( been playing 7 months) SO it may be crappy but comment
wrong ill post a new one. I was just so sick of nobody tabbing this so i tried myself.

Motley Crue
Vince Neil
Mick Mars
Tommy Lee
Nikki Sixx

For the beginning im not sure but you use your toggle switch to do that effect. The
guitar part on that im trying to get but im not sure, its something similiar to this below.

e|-------------------------------------|
B|-------------------------------------|
G|-------------------------------------|
D|--6-5-4-------------6-5-4------------|
A|--6-5-4----5-4-3-0--6-5-4---3-4-5----|
E|--------0--5-4-3-0--------0-3-4-5-0--|
P.M       .        .         .      .

Verses
                               w/wah
e|---------------------------|--------------------------------|
B|---------------------------|--8----7----5---3---------------|
G|---------------------------|-b11--b10--b8---b5--------------|
D|---------------------------|--------------------------------|
A|----------------------PH*--|--------------------------------|
E|--00-4-00-3-00-2-00-1-3----|--------------------------------|
P.M ...................

Pre Chorus

e|-------------------------------------------------|
B|-------------------------------------------------|
G|--2-2-2------------------------------------------|
D|--2-2-2------------------------------------------|
A|--0-0-0-3-3-3---5-5-5----5-5---------------------|
E|--------3-3-3---5-5-5----5-5---------------------|

Everytime.I can   I know.   way..

Chorus

e|------------------------------------------------|
B|------------------------------------------------|
G|------------------------------------------------|
D|----------------3-5-3--3-5-3-6-5-3--------------|
A|--0-0--6-5-6-0--3-5-3--3-5-3-6-5-3--------------|
E|--0-0--6-5-6-0----------------------------------|
   Here  I am again Hey now........year

1st solo

e|-------------------------------------------|
B|--15-14-13--9--8--7---15-14-13--9--10--9---|
G|--18-17-16--12-11-10--18-17-16--12-13--12--|
D|-------------------------------------------|
A|-------------------------------------------|
E|-------------------------------------------|

Sorry forgot to finish this.