Motley Crue - Save Our Souls Text Guitar Tab

Learn the song with the online tablature player
save our souls
motley crue

\- slide down
/- slide up
(#)- note in parenthesis is a ghost note
~- let ring
x- palm mute

intro
x2
--------------------------/17-------------------------
--9-/-14~~~-----(14)-----------/17----/14~~----(14)-\-

--2----5----7-------7--5----2----5--7-------7--5-
--2----5----7-------7--5----2----5--7-------7--5-
--0----3----5----0--5--3----0----3--5----0--5--3-
-----------------------------7-5---5-7/10-----7-5-0-7\--5--5--5--5-
--3----3--5/7--5----5--3--0--7-5-0-5-7/10--0--7-5-0-7\--3--3--5--5-
-----7-5---5-7/10----7-5---7-----------------------------7-5---5-7/10-
--0--7-5-0-5-7/10--0-7-5-0-7----3----3-5/7--5----5--3--0-7-5-0-5-7/10-

----7-5-0-7\----3----5----2-
--0-7-5-0-7\----3----5----0-
--9-/-14~~~-----(14)-

--2----5----7-------7--5----2----5--7-------7--5-
--2----5----7-------7--5----2----5--7-------7--5-
--0----3----5----0--5--3----0----3--5----0--5--3-
-----------------------------7-5---5-7/10-----7-5-0-7\--5--5--5--5-
--3----3--5/7--5----5--3--0--7-5-0-5-7/10--0--7-5-0-7\--3--3--5--5-
-----7-5---5-7/10----7-5---7-----------------------------7-5---5-7/10-
--0--7-5-0-5-7/10--0-7-5-0-7----3----3-5/7--5----5--3--0-7-5-0-5-7/10-

----7-5-0-7\----3----5----2-
--0-7-5-0-7\----3----5----0-
-------17--17\15----/20-17-17\15---------------------------------
--10/-(x)--------17--------------17------------------------------
------------------------------------17~-(17)--14\12---12~--(12)\-

--22\21----22\21----22\21----22\21--------------------20-----------------
--------22-------22-------22-------22\20--(20)--20/22----22-(22)-\5-/-17-

--17----17--17\15----/20-17-17\15---------------------------------------
-----17-----------17--------------17------------------------------------
-------------------------------------17~~--(17)--14\12----12-~~--(12)-\-

tremolo pick while sliding
------------------17--17\15----/20--(20)-\-
------------10-/-(x)--------17-------------
--5--/--10---------------------------------

--14\12---12--14-(14)\--14\12---14-(14)\-
--------14-------------------14----------

------------------------------7-5---5-7/10----7-5-0-7-
--3----3--5/7--5----5--3----0-7-5-0-5-7/10--0-7-5-0-7-

--/17----------------------/17----------------
------/17--14--14-(14)\12------/17--14-(14)-\-

--5----5--------------------------------------------
--5----5--5----5----7-5------5-7/10------7-5----0-7-
--3----3--5----5--0-7-5----0-5-7/10----0-7-5----0-7-
--15\14----15\14-----------15\14----15\14----------
--------14-------14-(14)\--------14-------14-(14)\-

------------------------------7-5---5-7/10------7-5-0-7----3----5-
--3----3--5/7--5----5--3----0-7-5-0-5-7/10----0-7-5-0-7----3----5-
------------------------------7-5---5-7/10------7-5-0-7--5--5--5--5-
--3----3--5/7--5----5--3----0-7-5-0-5-7/10----0-7-5-0-7--3--3--5--5-
--14\12---12--14-(14)\--14\12----14-(14)\-
--------14--------------------14----------

----7-5---5-7/10------7-5-0-7-
--0-7-5-0-5-7/10----0-7-5-0-7-

--15\14----15-\-14-----------15\14----15\14-----------
--------14---------14-(14)\--------14-------14-(14)-\-

------------------------------7-5------5-7/10------7-5--0-7-
--3----3--5/7--5----5--3----0-7-5----0-5-7/10----0-7-5--0-7-

--/17-----------------------/17----------------
------/17--14--14-(14)-\-12-----/17--14-(14)-\-

------------2--------------2--------------2----(2)----2-
--3----5----2----3----5----2----3----5----2----(2)----2-
--3----5----0----3----5----0----3----5----0----(0)----0-
--1----3---------1----3---------1----3------------------