Motley Crue - Tonight We Need A Lover Text Guitar Tab

Learn song with the online tabulature player
the stupid website put it as 'tonight we need a lover' when its just 'tonight'!!!!!!!!!!!!!!!! 

hey i cant believe no one tabbed this yet!!!! or posted on the internet!!!!
this is my favourite crue song, so i thought id try hard to tab it......so dont be too 
on me cus its my first tab...
but if anyone has any corrections, especially on the SOLO or the split chord notes in 
first verse, pleeeeeeeeeeaaaase contact me at kacey_@hotmail.co.uk

enjoyy!!!!!

intro
    D    E/A    D   C# D  G  GSUS2  pm
d-|----------------------------0~--|---|
a-|----------------------------0~--|---|
f-|-7---14-14---7---6-7--(2)~--2~--|---|
c-|-7---11-11---7---6-7---2~---2~--|---|
g-|-9---11-11---9---8-9---0~---0~--|0-0|
d-|--------------------------------|---| (4 times)

verse:

split chords over D, C#, B, A, G, F#, E
definatley not 100% on notes but its just a fill i use over chords-
All of this is palm muted, just unpalm mute on the higher notes towards the end and the hammerons-

      D             C#             B                             A         G
d-|-------------------------------------------------------------------------------------|
a-|-------------------------------------------------------------------------------------|
f-|-------------------------------------10--------------------------------------8h9p8---|
c-|-------14-----------14----------11--------11---------11---------9--------7---------7-|
g-|----14----14-----14----14----11----11---11---11----11---11----9---9----7---7---------|
d-|-12-----------11-----------9---------------------9----------7--------5---------------|

    G          F#        E              G         A         D     D/G    D  |  OR PLAY
d-|-------------------------------------------------------------------------|--------------|
a-|-------------------------------------------------------------------------|--------------|
f-|----------------------------3--------------------------------------------|--------------|
c-|-----7--------6--------4--------4--------7--------9------14-x-141414--14-|-14-x-777--14-|
g-|---7---7----6---6----4---4----4---4----7---7----9---9----14-x-121212--14-|-14-x-777--14-|
d-|-5--------4--------2-----------------5--------7----------12-x-121212--12-|-12-x-555--12-|

       you looked to young............
          pm                pm(7)         pm(7)
d-|-------------------------------------------------------------|
a-|-------------------------------------------------------------|
f-|-------------------------------------------------------------|
c-|-6-------------11-11-11---------7-7-7---------2-----7-7-7--2-|
g-|-6-------------11-11-11-----9---7-7-7-----9---2-----7-7-7--2-|
d-|-4--4-4-4-4-4--9--9--9----7-7---5-5-5---7-7---0-----5-5-5--0-|

         but when you smiled.....
         pm                  pm(12)         pm(6)      pm
d-|-----------------------------------------------------------|
a-|-----------------------------------------------------------|
f-|-----------------------------------------------------------|
c-|-6-------------11-11-11-----------7-7-7--------9-----------|
g-|-6-------------11-11-11------14---7-7-7-----8--9-----------|
d-|-4--4-4-4-4-4--9--9--9----12-12---5-5-5---6-6--7-7-7-7-7-7-|


chorus:
          pm            pm                               pm
d-|---------------------------------------------------------------|
a-|---------------------------------------------------------------|
f-|---------------------------------------------------------------|
c-|-7--------------9-----------------2---7-7-7--2-2-2-------------|
g-|-7--------------9-------------9---2---7-7-7--2-2-2-------------|
d-|-5-5-5-5-5-5-5--7-7-7-7-7-7-7-7---0---5-5-5--0-0-0-0-0-0-0-0-0-|(repeat)

then on 'toniiiiiighiiiiit....' play a A, Asus4-
not sure about chords are i just play-
d-|------------|
a-|------------|
f-|-------16~--|
c-|-------16~--|
g-|-14~---14~--|
d-|-14~---14~--|


intro:(x2)

verse:

chorus:

(solo)

verse: looked to young....

chorus:

intro: a number of times.....

end on D chord like-
d-|-----------|
a-|-----------|
f-|-----------|
c-|-14------9-|
g-|-14--OR--9-|
d-|-12------7-|