Motley Crue - White Trash Circus Text Guitar Tab

Learn song with the online tabulature player
-------------------------------------------------------------------------------
                             WHITE TRASH CIRCUS - Motley Crue
-------------------------------------------------------------------------------
Tabbed by: ironmanben
Email: bentrooper@gmail.com

Tuning: full step down

I have seen so many incorrect versions of this, so I decided to set everyone straight.

main riff x2
 |   play this x3     |play this x1|
e|--------------------|------------|
B|--------------------|------------|
G|--------10/11-10/11-|------------|
D|-9-9--9--x-x---x-x--|-9-9--9-5-7-|
A|-9-9--9--8/9---8/9--|-9-9--9-5-7-|
E|-7-7--7-------------|-7-7--7-3-5-|

verse x4
e|-------------------------------|
B|-------------------------------|
G|-------------------10/11-10/11-|
D|-9-9-x-x-xx-x-xxxx--x-x---x-x--|
A|-9-9-x-x-xx-x-xxxx--8/9---8/9--|
E|-7-7-x-x-xx-x-xxxx-------------|

pre-chorus x1
e|--------------------------------------------------------|
B|--------------------------------------------------------|
G|-9-7-77-77-7-9-7-77-77-7-11-9-99-99--11