Motograter - Prochecies Text Guitar Tab

Learn the song with the online tablature player
Intro 1
play riff x2(might wanna play around with the harmonic frett)
-----------------------|
-----------------------|
-----------------------|
------------------4444-|
------------------4444-|
-6-2-3-2--6-2-3-2------|
                  ****

Intro 2
Play riff x2
-----------------------|
-----------------------|
-----------------------|
-6-2-3-2--6-2-3-2-4444-|
-6-2-3-2--6-2-3-2-4444-|
-6-2-3-2--6-2-3-2------|
                  ****

Intro 3
first part x3, then 2nd once
------------|-----------|
------------|-----------|
------------|-----------|
-6-2-3-2-32-|-2222-2222-|
-6-2-3-2-32-|-2222-2222-|
-6-2-3-2-32-|-2222-2222-|

Verse
--------|
--------|
--------|
-2-2~-
-2-3~-
-2-3~-

Chorus
----------------|
----------------|
----------------|

Post Chorus is Intro 3.

Interlude
first part x3, then 2nd part once.
-----------|-----------|
-----------|-----------|
-----------|-----------|
-3333-2222-|-3333-331~-|
-3333-2222-|-3333-331~-|
-3333-2222-|-3333-331~-|