Motor Ace - Chairman Of The Board Text Guitar Tab

Learn the song with the online tablature player
tunnig:Dadgbe

intro/verse   (verse is palmed muted)

D                     E F#  A     E F#   D
-0-(let ring)---x-x---2-4---0-----2-4----0--------
-0--------------x-x---0-4---------0-4----0--------

pre chorus
(p.m--)
-2-2-2----------------------------------------------------
-3-3-3----------------------------------------------------
-2-2-2--2-2-2-------2-2-2-------2-2-2---------------------
-0-0-0--2-2-2-4-4-4-2-2-2-4-4-4-2-4-2---------------------
-0-0-0--0-0-0-4-4-4-0-0-0-4-4-4-0-2-0---------------------
-0-0-0--------2-2-2-------2-2-2---------------------------
'Working overtime....'

(p.m--------------------)
-2-2-2-----------------------------------------------
-3-3-3-----------------------------------------------
-2-2-2-----------------------------------------------
-0-0-0-----------------------------------------------
-0-0-0-----(repeat)----------------------------------
-0-0-0-----------------------------------------------
'by your own design'

chorus pat
      B       G#      A

------4---------------2----
------4-------6-------2----
------2-------6-------0----                          play both guitars at same pace
--------------6------------                          can't do exact timing. sorry

NORMAL
interlude and chorus for dave

e----------------------------------------------------------------------
b----------------------------------------------------------------------
g-16-16-16-16-13-13-13-13-14-14-14-14-14-14-14-14----------------------
d-14-14-14-14-14-14-14-14-14-14-14-14-14-14-14-14----------------------
a--0--0--0--0--0--0--0--0--0--0--0--0--0--0--0--0----------------------
D----------------------------------------------------------------------