Motorhead - Built For Speed Text Guitar Tab

Learn the song with the online tablature player
Built for Speed

                                Motorhead

Tune down to Eb (half a step)

Fill
e|-------|
B|-------|
G|-------|
D|-------|
A|-------|
E|-2-1-0-|

Main Riff       (2nd guitar continues palm muting the C)
e|-----------------------------------|
B|-----------------------------------|
G|-----------------------------------|
D|---7---9---7---9--------7--9--5----|
A|---5---7---5---7-----5--5--7--3----|
E|-00--00--00--00--5-7---0--0--------|
   ..  ..  ..  ..        .  .

Chorus
followed by fill)
e|-----------------------------------------------------------------|
B|-----------------------------------------------------------------|
G|-----------------------------------------------------------------|
D|-7-------9-------7---------------9-------9-------7---------------|
A|-5-------7-------5-------7-------7-------7-------5-------5-------|
E|-------------------------5-------------------------------3-------|