Motorhead - Cradle To The Grave Text Guitar Tab

Learn the song with the online tablature player
     A
|----------------------------------------------|
|----------------------------------------------|
|--2-2--0--2---2-2-0---2--2-0--2------0-----0--|
|--2-2--0--2---2-2-0---2--2-0--2----2-----4----|
|----------------0----------------3-----5------|
|----------------------------------------------|

     B
|--------------------------------------------|
|--------------------------------------------|
|--------------------------------------------|
|--7--9-9-9--7--9-9-9--5--7-7-7--5--7-7-7----|
|--5--7-7-7--5--7-7-7--3--5-5-5--3--5-5-5----|
|--------------------------------------------|

Fill
|-----------|
|-----------|
|--7--5-----|
|--7--5-----|
|--5--3-----|
|-----------|

     C
|-----------------------|
|-----------------------|
|-----------------------|
|--9--111111-9--111111--|
|--7--9-9-9--7--9-9-9---|
|-----------------------|

     D
|-----------------------|
|-----------------------|
|-----------------------|
|-----------------------|
|--2--4-4-4--2--4-4-4---|
|--0--2-2-2--0--2-2-2---|