Motorhead - Dance Text Guitar Tab

Learn the song with the online tablature player
     A

Gb
-----------------------------|
-----------------------------|
-----------------3-----------|make raw sound
--5~p3h5p3h5p3---3-----------|
---------------5-------------|
3----------------------------|

----------------------|
----------------------|
----------------------|
--5~p3h5p3h5p3--------|
---------------5------|
3----------------6----|

     B

Cb
--------------------------|
--------------------------|
--------------------------|
--------------------------|
1010-1212-1313-1212-------|
8-8--8-8--8-8--8-8--------|

     C

Eb
-------------------------|
-------------------------|
-------------------------|
2------------------------|
2------------------------|
0------------------------|

Then First Solo

Then Riff A-B-C scheme

Then Second Solo

Then end with Riff D to fade

     D

Gb
--------------|
--------------|
----------3---|
----------3---|
555555555-----|
333333333-----|