Motorhead - Dancing On Your Grave Text Guitar Tab

Learn song with the online tabulature player
|------------------------------------3p2-----|
|----------3------------------------------3--|
|----------------0----------------2----------|
|-------------2-----------0--0---------------|
|-0--2--3--------------2---------------------|
|-------------------3------------------------|

|--------------------------------------------|
|----------3-------------------------3p2-----|
|----------------0---------------------------|
|-------------2-----------0------------------|
|-0--2--3--------------2-----0---------------|
|-------------------3------------------------|