Motorhead - Dr Rock Text Guitar Tab

Learn the song with the online tablature player
..  - palm mute          /  - slide up to
 \  - slide down to      ~  - vibrato
 h  - hammer on          b  - bend
 p  - pull off            Suffixes for bend
                          ph - pinch harmonic
                           f - full bend    h - half bend
*  - see comment           r - release      t - tap bend
X  - percussion mute       ~ - vibrato bend
@  - slight palm mute     () - ghost note, sustained note

Tune Gtr to Eb

     A
|------------------------------|
|------------------------------|
|--9-9-x-x-x--9-9-x-x-x--7-----|
|--9-9-x-x-x--9-9-x-x-x--7-----|
|--7-7-x-x-x--7-7-x-x-x--5-----|
|------------------------------|

Riff B.1
|-----------------------------------------------------------------|
|-----------------10101010101010---------------12121212121212-----|
|--6-6--6-6--2----9-9-9-9-9-9-9---6-6--6-6--4--11111111111111-----|
|--6-6--6-6--2--------------------6-6--6-6--4---------------------|
|--4-4--4-4--0--------------------4-4--4-4--2---------------------|
|-----------------------------------------------------------------|

Riff B.2
|--------------------------------------------------------------------|
|-----------------10101010101010--------------------101010101010-----|
|--6-6--6-6--2----9-9-9-9-9-9-9---6-6--6-6--4----2--9-9-9-9-9-9------|
|--6-6--6-6--2--------------------6-6--6-6--4----2-------------------|
|--4-4--4-4--0--------------------4-4--4-4--2----0-------------------|
|--------------------------------------------------------------------|

Solo
|------------------|--------------------|
|------------------|--------------------|
|------------------|--7-7-7-7-7-7-------|
|------------------|--7-7-7-7-7-7-------|
|------------------|--5-5-5-5-5-5-------|
|--2222-2222-2222--|--------------------|

Ending
|--------------------|----------------|
|--------------------|----------------|
|--12---7---4---9----|----------------|
|--12---7---4---9----|--5-------------|
|--10---5---2---7----|-----5-----7----|
|--------------------|--------7-------|