Motorhead - Ill Be Your Sister Text Guitar Tab

Learn the song with the online tablature player
Motorhead-"I'll be your sister" from the Overkill album

Bass Intro
1|---------------------------------------|
2|---------------------------------------|
3|-0-0-0-0-0-0-0-0--0-0-3-4-5-3---3-5-3--|
4|---------------------------------------|

Guitar Intro         |Verse
1|-------------------|-----------------------------------|
2|-------------------|-----------------------------------|
3|-5-6-7-5-----------|-----------------5-6-7-5-----------|
4|-5-6-7-5---5-7-5---|-----7~----7~----5-6-7-5---5-7-5---|
5|-----------------7-|-0-0---0-0---0-0-----------------7-|
6|-------------------|-----------------------------------|

Chorus
 (x2)
1|-----------------------------------------|
2|-----------------------------------------|
3|-9-9-9-9-9-9-9-9-10-10-10-10-10-10-10-10-|
4|-9-9-9-9-9-9-9-9-10-10-10-10-10-10-10-10-|
5|-7-7-7-7-7-7-7-7--8--8--8--8--8--8--8--8-|
6|-----------------------------------------|

third time
1|-----------------------------------------|
2|-----------------------------------------|
3|-9-9-9-9-9-9-9-9-10-10-10-10-12-12-12-12-|
4|-9-9-9-9-9-9-9-9-10-10-10-10-12-12-12-12-|
5|-7-7-7-7-7-7-7-7--8--8--8--8-10-10-10-10-|
6|-----------------------------------------|