Motorhead - Just Cos You Got The Power Text Guitar Tab

Learn song with the online tabulature player
Riff 1
(verse and solo)
e---------------------------------|
B---------------------------------|
G-3-------3---35--3-------3----3--|
D-35555555355535--355555553555535-|
A-15553555155513--155535551555315-|
E--333-333-333-----333-333-333--3-|

Riff 2
(chorus and solo)
e--------------|
B--------------|
G-6------------|
D-6------------|
A-4------------|
E--(let ring)--|

Riff 3
(chorus and solo)
e--------------|
B--------------|
G-8-8-8-8-9-6--|
D-8-8-8-8-9-6--|
A-6-6-6-6-7-4--|
E--------------|