Motorhead - Liar Text Guitar Tab

Learn the song with the online tablature player
Intro

--11/1-0-3h6h5-0-2h5h4-0-0-0-0-0-3h6h5-0-2h5h4-----|
--11/1-0-5h8h7-0-4h7h6-0-0-0-0-0-5h8h7-0-4h7h6-0---|
--11/1-----------------------------------------0---|
-----------------------------------------------0---|
---------------------------------------------------|
---------------------------------------------------|
      |-------------------repeat 2x----------------|

Riff1

--3-0-0-0-0-0-0-0-0-0-3h4h3h4--0-0-0-0-0-0-0-3-0-0-0-0-0-0-0-0-3h4h3h4h3--|
--5-0-0-0-0-0-0-0-0-0-5h6h7h5--0-0-0-0-0-0-0-5-0-0-0-0-0-0-0-0-5h6h5h6h5--|
--5-------------------5h6h7h5----------------5-----------------5h6h5h6h5--|
--------------------------------------------------------------------------|
--------------------------------------------------------------------------|
--------------------------------------------------------------------------|
  |-----------------------------repeat 2x---------------------------------|

Chorus

-9---5---10--0-1-0-3p----9---5---10-x-x-x-x-x-x-x-9---5---10--0-1-0-3p----9---5---7-|
-11--7---12--------------11--7---12-x-x-x-x-x-x-x-11--7---12--------------11--7---9-|
-11--7---12--------------11--7---12---------------11--7---12--------------11--7---9-|
------------------------------------------------------------------------------------|
------------------------------------------------------------------------------------|
------------------------------------------------------------------------------------|

after that, the song follow the order below:

riff
chorus
intro
riff
chorus

Interlude
-2-0-0-0-0-0-0-0-0-2-0-0-0-0-0-0-0-0-2-0-0-0-0-0-0-0-0-2-0-0-0-0-0-0-0-0-|
-------------------------------------------------------------------------|
-------------------------------------------------------------------------|
-------------------------------------------------------------------------|
-------------------------------------------------------------------------|
-------------------------------------------------------------------------|

intro
riff
chorus

-3-0-0--------|
-5-0-0--------|
-5-0-0--------|
--------------|
--------------|
--------------|