Motorhead - Limb From Limb Text Guitar Tab

Learn the song with the online tablature player
This is a cool song from the great overkill album.
Main Riff
e|----------------------|
B|----------------------|
G|----------------------|
D|----------------------|
A|-----7------5---------|
E|-0-0----5-7---5-7-5-3-|

Verse A
1st & 2nd times)
e|-----------------------------------|
B|-----------------------------------|
G|-----------------------------------|
D|-----------------------------------|
A|-7-777777777-7-775/7-7-7-7775--5-5-|
E|-5-555555555-5-553/5-5-5-5553--3-3-|

Verse B
3rd time)
e|-----------------------------------|
B|-----------------------------------|
G|-----------------------------------|
D|-----------------------------------|
A|-9-999999999-9-995/7-7-7-7775--5-5-|
E|-7-777777777-7-773/5-5-5-5553--3-3-|

After solo
e|---------|
B|---------|
G|---------|
D|-77-7/9--|
A|-55-5/7--|
E|---------|

Now go to double time (or time and a half or something. It's faster anyway).

'Bridge'
e|----------------------------------|
B|----------------------------------|
G|----------------------------------|
D|-------------5--------------------|
A|-577777777777--7-577777777757---5-|
E|------------------------------57--|

The verse riffs are the same but faster. Replace the main riff with the one below.

e|-----------------|
B|-----------------|
G|-----------------|
D|-----------------|
A|-2-222222--2--2--|
E|-0-0000003-03-03-|