Motorhead - Line In The Sand Text Guitar Tab

Learn the song with the online tablature player
sup guys! this is motorhead's song line in the sand for evolution. i enjoy the song, but
hate the team that the song is for. here's the tab.

e----------------------------------------------------------------------------|
b----------------------------------------------------------------------------|
g----------------------------------------------------------------------------|
D----------77----------------------77----------------------------------------|
A-2---55---55--77---7-5---2---55---55----------------------------------------|
E-0---33-------55---5-3---0---33---------------------------------------------|

that is the intro and the verses.

i don't know the solo note for note, but i know the notescales that they use.

e--------------------------7-8-10--------------------------------------------|
b-------------------7-8-10---------------------------------------------------|
g---------------7-9----------------------------------------------------------|
D--------7-9-10--------------------------------------------------------------|
A-7-9-10---------------------------------------------------------------------|
E----------------------------------------------------------------------------|

that was one of them. here's the second scale(hint: just because it's not the scale
doesn't mean you can't use the notes.)

e----------------------------------12-14-15----------------------------------|
b-------------------------12-13-15-------------------------------------------|
g-------------------12-14----------------------------------------------------|
D-------------12-14----------------------------------------------------------|
A-------12-14----------------------------------------------------------------|
E-12-15----------------------------------------------------------------------|

that's the whole song. it's a great one to play and it's fun. remember to use the scale
the solo, but try to use the notes more than the scale itself. if you want to see this
shown watch monday night raw on spike tv mondays at 9:00 eastern time. till then keep it real and enjoy.