Motorhead - Living In The Past Text Guitar Tab

Learn the song with the online tablature player
Intro/Main Riffage:
----------------------------------------------|
----------------------------------------------|
----------------------------------------------|
----------------------------------------------|
-0h222-5p222-3p222-5p2-3----------------------|
-0h222-5p222-3p222-5p2-3----------------------|

Verse
--------------------------------------------------|
--------------------------------------------------|
--------------------------------------------------|
------------4x---------------fill back into riff--|
-0h222-3p2p0-2222-0-2-3---------7-6-5-------------|
-0h222-3p2p0-2222-0-2-3---------7-6-5-------------|

Chorus
------------------------------|
------------------------------|
------------------------------|
------------------------------|
-0h2222-5-0--5h7777-5h7777p5--|
-0h2222-5-0--5h7777-5h7777p5--|

Rhythm for solo
---------------------------|
---------------------------|
---------------------------|
---------------------------|
-7h999-10p9p7-9999-7-9-10--|
-7h999-10p9p7-9999-7-9-10--|