Motorhead - Name In Vain Text Guitar Tab

Learn song with the online tabulature player
----------------------------------------/
---------3--1h2-------------------------/
---------2------2---0---2---------------/
--2-2-------------2---2---2--0h2--------/
--0-0-----------------------------3-----/
----------------------------------------/


----------------------------------------/
---------3--1h2-------------------------/
---------2------2---0---2----0h2--------/
--2-2-------------2---2---2-------------/
--0-0-----------------------------------/
----------------------------------------/


should be pretty good
i did it in standard tuning to play along with the song tune down a half step