Motorhead - Over The Top Text Guitar Tab

Learn song with the online tabulature player
Motörhead-"Over the Top" 
tabbedby guillermo luppi: Lordaborto@mixmail.com

Tune down to Eb (half a step).


Main Riff (mute slightly under vocals)
1|-------------------------------|
2|-------------------------------|
3|-------------------------------|
4|-2-2-----2-2-----2-2-----7--5--|
5|-0-03030-0-03030-0-03030-5--3--|
6|--------3-------3-------3------|

Chorus 
1|------------------|
2|------------------|
3|------------------|
4|-7-9-9997-79-9999-|
5|-5-7-7775-57-7777-|
6|------------------|

Bridge (start of solo)
1|-------------------------------|
2|-------------------------------|
3|-------------------------------|
4|-2-------22------22------7--5--|
5|-0-------00------00------5--3--|
6|-------------------------------|