Motorhead - Slow Dance Text Guitar Tab

Learn the song with the online tablature player
Intro

Eb|------------------------------------------|
Bb|------------------------------------------|
Gb|------------------------------------------|
Db|---0—2—2—2---3—2—2—2---5—2-2-2---3-2-2-2--|
Ab|---0—2—2—2---3—2—2—2---5—2-2-2---3-2-2-2--|
Db|---0—2—2—2---3—2—2—2---5-2-2-2---3-2-2-2--|

Main Riff:

Eb|----------------------------------------------------------------|
Bb|----------------------------------------------------------------|
Gb|----------------------------------------------------------------|
Db|---0--2-2-0-2--X-X-X-X—-2-0-2/3---0--2-2-0-2--X-X-X-X-X-X—-7/8--|
Ab|---0--2-2-0-2--X-X-X-X—-2-0-2/3---0--2-2-0-2--X-X-X-X-X-X—-7/8--|
Db|---0--2-2-0-2--X-X-X-X—-2-0-2/3---0--2-2-0-2--X-X-X-X-X-X—-7/8--|

Eb|----------------------------------------------------------------|
Bb|----------------------------------------------------------------|
Gb|-----------------------------------------------------------4/5--|
Db|---0--2-2-0-2--X-X-X-X—-2-0-2-3---0--2-2-0-2--X-X-X-X-X-X—-4/5--|
Ab|---0--2-2-0-2--X-X-X-X--2-0-2-3---0--2-2-0-2--X-X-X-X-X-X—-2/3--|
Db|---0--2-2-0-2--X-X-X-X--2-0-2-3---0--2-2-0-0--X-X-X-X-X-X-------|

Chorus

Eb|------------------------------------------|
Bb|------------------------------------------|
Gb|---7--------7--------7--------------------|
Db|---7-6-5-3--7-6-5-3--7-6-5-3--5-5-5-5-5-5-|
Ab|---5-6-5-3--5-6-5-3--5-6-5-3--5-5-5-5-5-5-|
Db|-----6-5-3----6-5-3----6-5-3--5-5-5-5-5-5-|

After 2nd Chorus:

Eb|-------------|
Bb|-------------|
Gb|---2--5--7---|
Db|---2--5--7---|
Ab|---0--3--5---|
Db|-------------|

Playing the Intro during the Solo

Outro

Eb|-----------------------|
Bb|-----------------------|
Gb|-----4-----4-----4-4---|
Db|--0--4--0--4--0--4-4---|
Ab|--0--2--0--2--0--2-2---|
Db|--0-----0-----0--------|