Motorhead - Tear Ya Down Text Guitar Tab

Learn the song with the online tablature player
tear ya down -8
overkill

Intro/verse (guitar 2 plays an A minor)

1----------------------------------|
2----------------------------------|
3--------------------------------5-|
4-22-2222-22-2222-22-2222----567-5-|
5-33-0000-33-0000-33-0000-567------|
6----------------------------------|

Chorus
strum as necesarry)

1---------------------------------|
2---------------------------------|
3-6-------6---4-4-4--99-9-9-------|
4-6---4---6---4-4-4--99-9-9-------|
5-4---4---4---2-2-2--77-7-7-------|
6-----2---------------------------|

sorry, i dont know the solo but the rythm is just the verse then the chorus, after that
bridge is pretty much the same as the verse. If you want to improv the solo though,
in A then switch to C#.

Outro

1-----------------------------------|
2-----------------------------------|
3--------5--------5-------5--7-5----|
4----567-5----567-5---567-5--7-5-7--|
5-567------567-----567-----------0--|
6-----------------------------------|

enjoy