Motorhead - This Is The End Text Guitar Tab

Learn song with the online tabulature player
b |--------------------------------|---------------------|
Gb|--13----13----13--12h13p12-10---|--12---12------------|
D |------------------------------12|------------11---11--|
A |-----10----10-------------------|-----9----9----9----9|
E |--------------------------------|---------------------|
B |--------------------------------|---------------------|


b |--------------------------|--------------------------------|
Gb|---7h8------7h8------12--8|------------------------12h13-12|
D |-------9--------9---------|-----10h11-8----10h11-8---------|
A |--------------------------|---9----------9-----------------|
E |-7--------7---------------|--------------------------------|
B |--------------------------|--------------------------------|

b |-----------------------|------------------------|
Gb|-----------------------|------------------13-12-|
D |-----11h12-9----11h12-9|------------9-8---------|
A |--10---------10--------|-7-9-10-7-9-----9-------|
E |-----------------------|------------------------|
B |-----------------------|------------------------|