Motorhead - Whiplash Text Guitar Tab

Learn the song with the online tablature player
This a motorhead cover of a classic Metallica song Lemmy is God

INTRO

   E5
e:-------|--------------|---------|-------------------------------------|
B:-------|--------------|---------|-------------------------------------|
G:-9-9-9-|*-9----9-9-9-*|-9-------|-7-----------------------------------|
D:-9-9-9-|*-9----9-9-9-*|-9-------|-5-----------------------------------|
A:-7-7-7-|--7----7-7-7--|-7-------|-------------------------------------|
E:-------|--------------|---------|-------------------------------------|

     E5          x2
e:|-------|--------|--------|--------|------|-----------|
B:|-------|--------|--------|--------|------|-----------|
G:|*-9----|-(9)---*|-9-9----|-(9)----|-9----|-(9)-------|
D:|*-9----|-(9)---*|-9-9----|-(9)----|-9----|-(9)-------|
A:|--7----|-(7)----|-7-7----|-(7)----|-7----|-(7)-------|
E:|--0----|-(0)----|-0-0----|-(0)----|-0----|-(0)-------|

                                                     A5 Ab5
       PM---------------------------------------------------------|-          x3
e:|--------------------------------|------------------------------|
B:|--------------------------------|------------------------------|
G:|*-------------------------------|---------------------------*--|
D:|*-------------------------------|-----------------7--6------*--|
A:|--------------------------------|-----------------7--6--5p0----|
E:|-0--0-0-0-0-0-0-0-0-0-0-0-0-0-0-|-0-0-0-0-0-0-0-0--------------|

                                                     A5 Ab5G5
       PM-------------------------------------------------------|
e:|--------------------------------|----------------------------|
B:|--------------------------------|----------------------------|
G:|*-------------------------------|-------------------------*--|
D:|*-------------------------------|-----------------7--6--5-*--|
A:|--------------------------------|-----------------7--6--5----|
E:|-0--0-0-0-0-0-0-0-0-0-0-0-0-0-0-|-0-0-0-0-0-0-0-0------------|

                                                    A5 Ab5G5
       PM-------------------------------------------------------|
e:|--------------------------------|----------------------------|
B:|--------------------------------|----------------------------|
G:|*-------------------------------|-------------------------*--|
D:|*-------------------------------|-----------------7--6--5-*--|
A:|-2------------------------------|-----------------7--6--5----|
E:|-0--0-0-0-0-0-0-0-0-0-0-0-0-0-0-|-0-0-0-0-0-0-0-0------------|

    PM----------------------------------------------------------- G5----|- x4
e:|---------------------------------|-----------------------------------|
B:|---------------------------------|-----------------------------------|
G:|*--------------------------------|--------------------------------*--|
D:|*--------------------------------|-----------------------------5--*--|
A:|---------------------------------|-----------------------------5-----|
E:|-0-0-0-0-0-0-0-0-0-0-0-0-0-0-0-0-|-0-0-0-0-0-0-0-0-0-0-0-0-0-0-------|

VERSE

    PM----------------------------------------------------------- G5----|- x4
e:|---------------------------------|-----------------------------------|
B:|---------------------------------|-----------------------------------|
G:|*--------------------------------|--------------------------------*--|
D:|*--------------------------------|-----------------------------5--*--|
A:|---------------------------------|-----------------------------5-----|
E:|-0-0-0-0-0-0-0-0-0-0-0-0-0-0-0-0-|-0-0-0-0-0-0-0-0-0-0-0-0-0-0-------|

(4th time only)
e:-22b~-----|
B:----------|
G:----------|
D:----------|
A:----------|
E:----------|

CHORUS

     C5    B5A5      F#5
                     PM---------------------|- x3
e:|------------|----------------------------|
B:|------------|----------------------------|
G:|*-----------|-------------------------*--|
D:|*-5---5-4-2-|-------------------------*--|
A:|--3---3-2-0-|-----4-4-4--4-4-4--4-4------|
E:|------------|-0h2-2-2-2--2-2-2--2-2-0----|

INTERLUDE

                 D5     Db5     C5      A5      Ab5     G5
    Drums        |      |       |       |       |       |
e:-----------|----------------------------------------------|
B:-----------|----------------------------------------------|
G:-----------|----------------------------------------------|
D:-----------|----------------------------------------------|
A:-----------|----------------------------------------------|
E:-----------|----------------------------------------------|

                  PM--------                PM------------|- x4
e:|--------------------------|----------------------------|
B:|--------------------------|----------------------------|
G:|*-------------------------|-------------------------*--|
D:|*-------5---5-------------|-------5---5-------------*--|
A:|--7p5---5---5-------------|-7p5---5---5----------------|
E:|------7---7----0--0--0--0-|-----7---7----0--0--0--0----|

Solo, dont know it but repeat this pattern and then the main riff as the rhythm

Then there is a verse and chorus that goes into this section

OUTRO

    C5                          B5      A5  E5   F#5     E5     F#5 E5
    |                   |       |       |   |    | | | | |  |   |   | x3
e:---------------------------------------|-----------------------------|
B:---------------------------------------|-----------------------------|
G:---------------------------------------|*--------------------------*-|
D:---------------------------------------|*--------------------------*-|
A:---------------------------------------|-----------------------------|
E:---------------------------------------|-----------------------------|

   E5      F#5     E5  F#5E5            E5      F#5     E5 F#5
   |       | | | | | | |  |             |       | |  |  |  |  |
e:--------------------------------------------------------------||
B:--------------------------------------------------------------||
G:--------------------------------------------------------------||
D:--------------------------------------------------------------||
A:--------------------------------------------------------------||
E:--------------------------------------------------------------||