Mount Eerie - With My Hands Out Text Guitar Tab

Learn the song with the online tablature player
e|---------------------------------|
B|---------------------------------|
G|---2h4-0---0---------------------|
D|---------2---2-------------------|
A|-0-------3-----------------------|
E|-5-------------1-1-1-1-1-1-1-1~5-|

I want to go back across that sea
with my hands out, with my hands out

and I will rise from the water
though I'm cold and wet I will be clean

I want come back from this robbery
with my hands up, with my hands up

and i will lie down and be handcuffed
take me, and I'll be yours

dripping wet
just try and hold me, try and hold me, just try and hold me

e|---------------|
B|---------------|
G|---2h4-0---0---|
D|---------2---7-|
A|-0-------3---8-|
E|-5-------------|

I am dripping wet and limp