Mourningside - Dispose Text Guitar Tab

Learn the song with the online tablature player
MOURNINGSIDE - DISPOSE

PH = PINCHED HARMONIC
DB = DIVEBOMB
* = HARMONIC

    D|---------------------------------|
    A|---------------------------------|
GTR F|---------------------------------|
 1  C|-----7---8-----7---8---7---------| x2
    G|-0-0-5-0-6-0-0-5-0-6-0-5-0-0-----|
    C|-0-0---0---0-0---0---0---0-0-2-1-|
       P M   PM  P M   PM  PM  P M P M

    D|---------------------------------|
    A|---------------------------------|
GTR F|---------------------------------|
 1  C|-----7---8-----7---8---7---------| 1,3,5,7
    G|-0-0-5-0-6-0-0-5-0-6-0-5-0-0-----|
    C|-0-0---0---0-0---0---0---0-0-2-1-|
       P M   PM  P M   PM  PM  P M P M

    D|---------------------------------|
    A|-----------------------------10PH|
GTR F|---------------------------------|
 2  C|-----7---8-----7---8-------------| 1,3,5,7
    G|-0-0-5-0-6-0-0-5-0-6-0-0-0-0-----|
    C|-0-0---0---0-0---0---0-0-0-0-----|
       P M   PM  P M   PM  P M P M

    D|---------------------------------|
    A|---------------------------------|
GTR F|---------------------------------|
 1  C|-----7---8-----7---8---7---------| 2,4,6,8
    G|-0-0-5-0-6-0-0-5-0-6-0-5-0-0-----|
    C|-0-0---0---0-0---0---0---0-0-2-1-|
       P M   PM  P M   PM  PM  P M P M

    D|-----------------------------------|
    A|-----------------------------9-10PH|
GTR F|-----------------------------------|
 2  C|-----7---8-----7---8---------------| 2,4,6,8
    G|-0-0-5-0-6-0-0-5-0-6-0-0-0-0-------|
    C|-0-0---0---0-0---0---0-0-0-0-------|
       P M   PM  P M   PM  P M P M

    D|-----------------------------------|
    A|-----------------------------------|
GTR F|-----------------------------------| x4
1+2 C|-----------------------------------|
    G|-0-0-0-0-0---0-0--0-0----00000-----|
    C|-0-0-0-0-0---0-0--0-0----00000-----|

    D|-----------------------------------|
    A|-----------------------------------|
GTR F|-----------------------------------| x4
 1  C|-----------------------------------|
    G|-0-0-0-0-0---0-0--0-0--------------|
    C|-0-0-0-0-0---0-0--0-0--------------|

    D|-----------------------------------|
    A|-----------------------------------|
GTR F|--------------------------DB-------| x4
 2  C|-----------------------------------|
    G|-0-0-0-0-0---0-0--0-0--------------|
    C|-0-0-0-0-0---0-0--0-0--------------|

    D|-----------------------------------|
    A|-----------------------------------|
GTR F|-----------------------------------|
 1  C|-0---------------------------------| 1,2,3,4
    G|-0-(LR)----------------------------|
    C|-0---------------------------------|

    D|----------------------- 1,2,3,4 -------------------------|
    A|---------------------------------------------------------|
GTR F|---------------------------------------------------------|
 2  C|---------------------------------------------------------|
    G|-0-0-0-0-0-0-0-0-0-0-0-0-0-0-0-0-0-0-0-0-0-0-0-0-0-0-0-0-|
    C|-0-0-0-0-0-0-0-0-0-0-0-0-0-0-0-0-0-0-0-0-0-0-0-0-0-0-0-0-|
       P M P M P M P M P M P M P M P M P M P M P M P M P M P M

    D|--------------------- 1,3 -------------------------------|
    A|---------------------------*-*-*-*-*-*-*-*-*-*-*-*-*-*-*-|
GTR F|---------------------------7-5-5-7-5-5-7-5-5-7-5-5-7-5-5-|
 3  C|-------------------------------------------------------|
    G|---------------------------------------------------------|
    C|---------------------------------------------------------|

    D|---------------------------------------------------------|
    A|---------------------------------*-*-*-*-*-*-*-*---------|
GTR F|---------------------------------7-5-5-7-5-5-7-5DB-------| 2,4
 3  C|---------------------------------------------------------|
    G|---------------------------------------------------------|
    C|---------------------------------------------------------|

    D|----------------------------------------|
    A|----------------------------------------|
GTR F|----------------------------------------|
 1  C|----------------------------------------| x4
    G|-0----0-0-0-0---------------------------|
    C|-0----0-0-0-0---------------------------|
       PM   P M P M

    D|----------------------------------------|
    A|----------------------------------------|
GTR F|----------------------------------------|
 2  C|-DB-------------------------------------| ON FOURTH TIME.
    G|----------------------------------------|
    C|----------------------------------------|

    D|----------------------------------------|
    A|----------------------------------------|
GTR F|----------------------------------------|
1+2 C|----------------------------------------| x4
    G|-0----0-0-0-0---------------------------|
    C|-0----0-0-0-0---------------------------|
       PM   P M P M

    D|-------------------------------|
    A|---------------------------8---|
GTR F|--------------8p7--7-8-7-8---8-|
 1  C|-------------------------------|
    G|-----0-0--5-0----0-------------|
    C|-/12-0-0----0----0-------------|
           P M    PM   PM

    D|-------------------------------|
    A|---------------------------8---|
GTR F|--------------8p7--7-8-7-8---8-|
 2  C|-------------------------------|
    G|-----0-0--5-0----0-------------|
    C|-----0-0----0----0-------------|
           P M    PM   PM

    D|---------------------------|
    A|-----------------------8---|
GTR F|----------8p7--7-8-7-8---8-|
1+2 C|---------------------------| x7
    G|-0-0--5-0----0-------------|
    C|-0-0----0----0-------------|
           P M    PM   PM

    D|---------------------------------------|
    A|---------------------------------------|
GTR F|---------------------------------------|
1+2 C|-0------1--3--4--1-----------8------10-| 1,3
    G|-0------1--3--4--1-------0-0-8--0-0-10-|
    C|-0------1--3--4--1-------0-0-8--0-0-10-|
                               P M    P M

    D|----------------------------------------|
    A|----------------------------------------|
GTR F|----------------------------------------|
1+2 C|-0------1--3--4--1-----------1-----1----| 2,4
    G|-0------1--3--4--1-------0-0-1-0-0-1----|
    C|-0------1--3--4--1-------0-0-1-0-0-1----|
                               P M   P M

    D|-------------------------------------------------------------|
    A|-------------------------------------------------------------|
GTR F|-------------------------------------------------------------|
1+2 C|-------------------------------------------------------------| x4
    G|-0-0-0-0-0-0-0-0-0-0-0-0-3-3-4-4-1-1-1-1-1-1-1-1-1-1-1-8-8-8-|
    C|-0-0-0-0-0-0-0-0-0-0-0-0-3-3-4-4-1-1-1-1-1-1-1-1-1-1-1-8-8-8-|
       P M P M P M P M P M P M P M P M P M P M P M P M P M P M P M

    D|---------------------------------------|
    A|---------------------------------------|
GTR F|---------------------------------------|
1+2 C|-0------1--3--4--1-----------8------10-| 1,3
    G|-0------1--3--4--1-------0-0-8--0-0-10-|
    C|-0------1--3--4--1-------0-0-8--0-0-10-|
                               P M    P M

    D|----------------------------------------|
    A|----------------------------------------|
GTR F|----------------------------------------|
1+2 C|-0------1--3--4--1-----------1-----1----| 2,4
    G|-0------1--3--4--1-------0-0-1-0-0-1----|
    C|-0------1--3--4--1-------0-0-1-0-0-1----|
                               P M   P M

    D|---------------------------------|
    A|---------------------------------|
GTR F|---------------------------------|
 1  C|-----7---8-----7---8---7---------|
    G|-0-0-5-0-6-0-0-5-0-6-0-5-0-0-----|
    C|-0-0---0---0-0---0---0---0-0-2-1-|
       P M   PM  P M   PM  PM  P M P M

    D|---------------------------------|
    A|---------------------------------|
GTR F|---------------------------------|
 1  C|-----7---8-----7---8---7---------| 1,3
    G|-0-0-5-0-6-0-0-5-0-6-0-5-0-0-----|
    C|-0-0---0---0-0---0---0---0-0-2-1-|
       P M   PM  P M   PM  PM  P M P M

    D|---------------------------------|
    A|-----------------------------10PH|
GTR F|---------------------------------|
 2  C|-----7---8-----7---8-------------| 1,3
    G|-0-0-5-0-6-0-0-5-0-6-0-0-0-0-----|
    C|-0-0---0---0-0---0---0-0-0-0-----|
       P M   PM  P M   PM  P M P M

    D|---------------------------------|
    A|---------------------------------|
GTR F|---------------------------------|
 1  C|-----7---8-----7---8---7---------| 2,4
    G|-0-0-5-0-6-0-0-5-0-6-0-5-0-0-----|
    C|-0-0---0---0-0---0---0---0-0-2-1-|
       P M   PM  P M   PM  PM  P M P M

    D|-----------------------------------|
    A|-----------------------------9-10PH|
GTR F|-----------------------------------|
 2  C|-----7---8-----7---8---------------| 2,4
    G|-0-0-5-0-6-0-0-5-0-6-0-0-0-0-------|
    C|-0-0---0---0-0---0---0-0-0-0-------|
       P M   PM  P M   PM  P M P M

    D|------|
    A|------|
GTR F|------|
1+2 C|------|
    G|-0-0--|
    C|-0-0--|
       P M

END