Mouse On Mars - Twift Shoeblade Text Guitar Tab

Learn the song with the online tablature player
                             Twift Shoeblade - Mouse On Mars

e|--------------------------------------------------------|
B|--------------------------------------------------------|
G|--------------------------------------------------------|
D|--------------------------------------------------------|
A|-9---------7-9-7-------7---------7-9-7------------------|
E|---10-7-10--------7-10------7-10-------10-7-10-7-0------|

e|--------------------------------------------------------|
B|--------------------------------------------------------|
G|--------------------------------------------------------|
D|--------------------------------------------------------|
A|------7-9---------7-9-7------7-------7-9-7--------------|
E|-7-10-----10-7-10-------7-10----7-10-------10-7-10-7-0--|

High pitched note part, repeat as necessary.

e|-12-----------------------------------------------------|

| /  slide up
| \  slide down
| h  hammer-on
| p  pull-off
| ~  vibrato
| +  harmonic
| x  Mute note