Moving Mountains - Cover The Roots Lower The Stems Text Guitar Tab

Learn the song with the online tablature player
G#-------------------|-------------------|------------------|------------------|
D#-------------------|-------------------|---------3-----3--|---------3-----3--|
B-------5/7\4------4-|------5/7\4------4-|-----4-----4---4--|-----4-----4---4--|
F#-----------------0-|-----------------2-|---2---2-------2--|---2---2-------2--|
C#----3--/5\2------2-|----3--/5\2------0-|-3-------------0--|-3-------------0--|
G#--0--------------3-|--0----------------|------------------|------------------|

G#-------------------|-------------------|------------------|--------------|
D#-------------------|-------------------|---------3-----3--|-3-3-3-3-3--3-|
B-------5/7\4------4-|------5/7\4------4-|-----4-----4---4--|-4-4-4-4-4--4-|
F#-----------------0-|-----------------2-|---2---2-------2--|-2-2-2-2-2--2-|
C#----3--/5\2------2-|----3--/5\2------0-|-3-------------0--|-3-3-3-3-3--0-|
G#--0--------------3-|--0----------------|------------------|--------------|

G#-------------------|-------------------|------------------|--------------|
D#-------------------|-------------------|---------3-----3--|-3-3-3-3-3--3-|
B-------5/7\4------4-|------5/7\4------4-|-----4-----4---4--|-4-4-4-4-4--4-|
F#-----------------0-|-----------------2-|---2---2-------2--|-2-2-2-2-2--2-|
C#----3--/5\2------2-|----3--/5\2------0-|-3-------------0--|-3-3-3-3-3--3-|
G#--0--------------3-|--0----------------|------------------|--------------|

G#--------------------------------|---------------------|--------------------------------------|
D#--------------------------------|---------------------|--------------------------------------|
B----0-0-000-0-0-0-0-0-000-0-0-0--|-4^(4)---------------|-4^(4)p0----7^(tremolo pick and bend)-|
F#--4-4-4-5-5-5-5-4-4-4-5-5-5-5---|-------5/7-----------|------- 5p0---------------------------|
C#--------------------------------|-----------7--9-10-12|--------------------------------------|
G#--------------------------------|---------------------|--------------------------------------|