Moving Mountains - Keep Your Head Above Text Guitar Tab

Learn song with the online tabulature player
E|-------------------------------------------------------------------|
B|-------------------------------------------------------------------|
G|-------0-------0-------0-------0-------0-------0-------0-------0---|
D|-------------------------------------------------------------------|
A|---0---0---0---0---0---0---0---0---0---0---0---0---0---0---0---0---|
D|-3---3---3---3---3---3---3---3---3---3---3---3---3---3---3---3---3-|

E|-------------------------------------------------------------------|
B|-------------------------------------------------------------------|
G|-------0-------0-------0-------0-------0-------0-------0-------0---|
D|-------------------------------------------------------------------|
A|---0---0---0---0---0---0---0---0---0---0---0---0---0---0---0---0---|
D|-0---0---0---0---0---0---0---0---0---0---0---0---0---0---0---0---0-|

E|-------------------------------------------------------------------|
B|-------------------------------------------------------------------|
G|-------0-------0-------0-------0-------0-------0-------0-------0---|
D|-------------------------------------------------------------------|
A|---0---0---0---0---0---0---0---0---0---0---0---0---0---0---0---0---|
D|-3---3---3---3---3---3---3---3---3---3---3---3---3---3---3---3---3-|

More or less...