Mr. Big - Lost In America Text Guitar Tab

Learn the song with the online tablature player
A intro of the song (acoustic version) goes like this:

-----------------------------------------------|
-----------------------------------------------|
-----------------------------------------------|
--9-9-9-9---5-5-5-5---7-7-7-7---9-9-9-9--9-----|
--9-9-9-9---5-5-5-5---7-7-7-7---9-9-9-9--9-----|
--7-7-7-7---3-3-3-3---5-5-5-5---7-7-7-7--7-----|

----------------------------|
----------------------------|
----------------------------|
--9-9-9-9---5-5-5-5---7~~~--|
--9-9-9-9---5-5-5-5---7~~~--|
--7-7-7-7---3-3-3-3---5~~~--|