Mr. Bungle - Platypus Text Guitar Tab

Learn the song with the online tablature player
Artist: Mr. Bungle
Album:  Disco Volante
Song:   Platypus(track 11)

Tab made by Charles Jobin

e|------------------------------------------------------------------------------------------------------------------------------|
b|-------------------------------------------------4~-------------4~-----------------------------------4~----------------3~-----|
g|-----------5~------------------5~----------------2~-------------2~----------------5~-----------------2~----------------1~-----|
d|-----------3~------------------3~----------------1~-------------1~----------------3~-----------------1~----------------0~-----|
a|----------------------------------------3--3------------3--3--------------------------------3--3-------------2--2-------------|
e|---2--2----------------2--2-------------2--2------------2--2--------------2--2--------------2--2-------------1--1-------------|

e|------------------------------------------------------------------------------------------------------------------------------|
b|------------------------------------------------------------------------------------------------------------------------------|
g|-----------5~-----------------5~----------------------------------------------------------------------------------------------|
d|-----------3~-----------------3~----------------3---------3-------------3-----3~-------------3---------3-----------3-3--------|
a|------------------------------------------------------------------------------------------------------------------------------|
e|---2--2---------------2--2--------------2--2--------2----------2--2------------------2--2---------2--------2--2---------------|

~: let the note ring