Mr Gnome - Tied Text Guitar Tab

Learn song with the online tabulature player
Tied, by mr. Gnome (http://mrgnome.com/)

--------------------------------------|
--------------------------------------|
--------------------------------------|
-4-------4------4-------4-------------|
----5-------5-------5-------5---------|
-------7-------7-------7-------7------|

---------------------------------------|
---------------------------------------|
---------------------------------------|
---------------------------------------|
----4----------4---------4----------4--|
-5-----5----4----4---2----2----5-------|


In the chorus, instead of playing the first 4 bars, just mute all the strings with your 
left hand.
You can listen to what this sounds like in the recording.


Lyrics:
He's sitting high above...
It all began.
Oh My love...
I've done it once again.

Chorus:
Here in my shoes,
Singing the blues.
Watch me as I fall,
I'll be here once more...

He's sitting high above.
He screams out loud.
Oh my love...
I've done it once again.