Mr Scruff - Spandex Man Text Guitar Tab

Learn the song with the online tablature player
Here's the guitar riff from Mr Scruff's tune Spandex Man..

e|--x--x-----------------------------------x--x----------------------|
B|--x--x-----------------------------------x--x----------------------|
G|--7--6----14-----------------------------7--4----------------------|
D|--7--7-------14--------------------------8--5----------------------|
A|--5--7----------15h17p15-----------------8--5--------5h7p5---------|
E|--x--5---------------------17-----------6--3---5h7---------h7------|

e|--x--x-----------------------------------x--x----------------------|
B|--x--x-----------------------------------x--x----------------------|
G|--7--6----14-----------------------------7--4----------------------|
D|--7--7-------14--------------------------8--5-------------5--------|
A|--5--7----------15h17p15-----------------8--5--------5h7-----h7----|
E|--x--5----------------------17-----------6--3---5h7----------------|

Might not be perfect but it sounds pretty good. Listen to the song for the timing.