Mr. T Experience - Told You Once Text Guitar Tab

Learn the song with the online tablature player
Very Easy And Funny Song That Lasts 0.10 Secs!

|------------|------------|
|------------|------------|
|----7--9----|----7--9----|
|-7--7--9--7-|-7--7--9--7-|
|-7--5--7--7-|-7--5--7--7-|
|-5--------5-|-5--------5-|

|------------|
|------------|
|----9-----7-|
|-7--9--7--7-|
|-7--7--7--5-|
|-5-----5----|

|------------|
|------------|
|----7--9----|
|-7--7--9--7-|
|-7--5--7--7-|
|-5--------5-|

I Might As Well Chuck The Lyrics In, There Funny :)

Told You Once

Fuck the fucking fucked up fucks
Those fucked-up fuck-ups fucking suck
Told you once you stupid cunts
You fucked the fuck-ups all fucked-up.