Mree - Against The Current Text Guitar Tab

Learn the song with the online tablature player
Intro
   C                              A2          Am

e|--------------------------------------------------------|
B|--1--------1-----1--------1-----0----------0h1---1------|
G|-------0-----0------0-------0------2---2-------2----2---|
D|-----2----------------2-------2------2---2------------2-|
A|--3--------------3--------------0----------0------------|
E|---------3--------------3-------------------------------|

   F maj7                      F

e|-0--------0----0--------0----0------------0------------|
B|----1-------1-----1-------1-----3-----3------3-----3---|
G|------2-------------2-------------1-----1------1-----1-|
D|-3------3------3------3------3------3-----3------3-----|
A|-------------------------------------------------------|
E|-------------------------------------------------------|
   C                        A

e|---------------0----------------------------------|
B|-1--------1--------3---1--0----------0h1---1------|
G|----0-------0----0---0------2---2--------2----2---|
D|------2-----------------------2---2-------------2-|
A|-3------3------3----------0----------0------------|
E|--------------------------------------------------|

   F maj7                     FMinor
e|-0-------0----0--------0----0-------------0-----|
B|---1-------1-----1-------1-----3-----3----3-----|
G|-----2-------------2-------------1-----1--1-----|
D|-3-----3------3------3------3------3------3-----|
A|------------------------------------------------|
E|------------------------------------------------|

Verse
   C                              Am                     F maj7

e|-------------------------------------------------------|
B|-1--------1-----1--------1------1-----------1------1---|
G|------0-----0------0-------0-------2---2-------2-----2-|
D|----2---------2------2-------2-------2---2-------2-----|
A|-3--------------3---------------0-----------0----------|
E|--------3--------------3--------------0-----------0----|

                             Fminor

e|-0-------0----0------------0------------0-|
B|---1-------1----1-----1------3-----3----3-|
G|-----2------------2-----2------1-----2--1-|  x2
D|-3-----3------3-----3------3-----3------3-|
A|------------------------------------------|
E|------------------------------------------|

Chorus

   F maj7        G            C                            F maj7

e|----------------------------------------------------------------------|
B|-1--------1----0-------0----1--------1-----0h1---1-------1--------1---|
G|----2-------2----0-------0-----0-------0-------0----0-------2-------2-|
D|------3------------0-------------2-------2------------2-------3-------|
A|-0------0------2-----2------3------3-------3-------------0------0-----|
E|----------------------------------------------------------------------|

   G            C              A             F maj7       FMinor

e|-----------------------------------------------------------------------|
B|-0-------0----1--------1-----0h1---1-------1-------1----3--------3-----|
G|---0-------0-----0-------0-------2----2------2-------2-----1-------1---|
D|-----0-------------2-------2------------2------3-------------3---------|
A|-2-----2------3------3-------0-------------0-----0------0------0-------|
E|-----------------------------------------------------------------------|

   C      G        F maj7  Fm  C

e|----------------------------------------------------------|
B|-1--------0------0-------1---1--------1-----1--------1----|
G|----0-------0----3-------1--------0-----0------0-------0--|
D|------2-------0--2-------3------2---------2------2-------2|
A|-3------2--------1-----------3--------------3-------------|
E|------------------------------------3--------------3------|

e|-----------------|
B|-1--------1-----1|
G|----0-------0----|
D|------2-------2--|
A|-3--------------3|
E|--------3--------|

Verse2

   C                              Am                  F maj7

e|----------------------------------------------------0-------0--|
B|-1--------1-----1--------1------1------1--1------1----1--------|
G|------0-----0------0-------0---------2-------2----------2------|
D|----2---------2------2-------2-----2-----------2----3-----3----|
A|-3--------------3---------------0-----0---0-----0--------------|
E|--------3--------------3---------------------------------------|

               Fminor

e|-0------------0-------------0-----------|
B|---1-----1-------3-----3-------3-----3--|
G|-----2-----2-------1-----1-------1-----1|
D|-3-----3------3------3------3------3----|
A|----------------------------------------|
E|----------------------------------------|

   C                              Am                  F maj7

e|----------------------------------------------------0-------0--|
B|-1--------1-----1--------1------1------1--1------1----1--------|
G|------0-----0------0-------0---------2-------2----------2------|
D|----2---------2------2-------2-----2-----------2----3-----3----|
A|-3--------------3---------------0-----0---0-----0--------------|
E|--------3--------------3---------------------------------------|

               Fminor

e|-0-------0----0-------------0|
B|---1-------1-----3-----3----3|
G|-----2-------------1-----1--1|
D|-3-----3------3------3------3|
A|-----------------------------|
E|-----------------------------|